  0
SECTION
  2
HEADER
  9
$ACADVER
  1
AC1015
  9
$ACADMAINTVER
 70
     6
  9
$DWGCODEPAGE
  3
ANSI_1254
  9
$INSBASE
 10
0.0
 20
0.0
 30
0.0
  9
$EXTMIN
 10
0.0
 20
0.0
 30
0.0
  9
$EXTMAX
 10
279.4
 20
215.9
 30
0.0
  9
$LIMMIN
 10
0.0
 20
0.0
  9
$LIMMAX
 10
279.4
 20
215.9
  9
$ORTHOMODE
 70
     0
  9
$REGENMODE
 70
     1
  9
$FILLMODE
 70
     1
  9
$QTEXTMODE
 70
     0
  9
$MIRRTEXT
 70
     1
  9
$LTSCALE
 40
1.0
  9
$ATTMODE
 70
     1
  9
$TEXTSIZE
 40
3.5
  9
$TRACEWID
 40
1.0
  9
$TEXTSTYLE
  7
Standard
  9
$CLAYER
  8
0
  9
$CELTYPE
  6
ByLayer
  9
$CECOLOR
 62
   256
  9
$CELTSCALE
 40
1.0
  9
$DISPSILH
 70
     0
  9
$DIMSCALE
 40
1.0
  9
$DIMASZ
 40
3.5
  9
$DIMEXO
 40
1.0
  9
$DIMDLI
 40
3.75
  9
$DIMRND
 40
0.0
  9
$DIMDLE
 40
0.0
  9
$DIMEXE
 40
1.0
  9
$DIMTP
 40
0.0
  9
$DIMTM
 40
0.0
  9
$DIMTXT
 40
3.5
  9
$DIMCEN
 40
2.5
  9
$DIMTSZ
 40
0.0
  9
$DIMTOL
 70
     0
  9
$DIMLIM
 70
     0
  9
$DIMTIH
 70
     1
  9
$DIMTOH
 70
     1
  9
$DIMSE1
 70
     0
  9
$DIMSE2
 70
     0
  9
$DIMTAD
 70
     1
  9
$DIMZIN
 70
     0
  9
$DIMBLK
  1

  9
$DIMASO
 70
     1
  9
$DIMSHO
 70
     1
  9
$DIMPOST
  1

  9
$DIMAPOST
  1

  9
$DIMALT
 70
     0
  9
$DIMALTD
 70
     3
  9
$DIMALTF
 40
0.0393700787
  9
$DIMLFAC
 40
1.0
  9
$DIMTOFL
 70
     1
  9
$DIMTVP
 40
0.0
  9
$DIMTIX
 70
     0
  9
$DIMSOXD
 70
     0
  9
$DIMSAH
 70
     0
  9
$DIMBLK1
  1

  9
$DIMBLK2
  1

  9
$DIMSTYLE
  2
ISO-25
  9
$DIMCLRD
 70
     0
  9
$DIMCLRE
 70
     0
  9
$DIMCLRT
 70
     0
  9
$DIMTFAC
 40
1.0
  9
$DIMGAP
 40
1.524
  9
$DIMJUST
 70
     0
  9
$DIMSD1
 70
     0
  9
$DIMSD2
 70
     0
  9
$DIMTOLJ
 70
     0
  9
$DIMTZIN
 70
     0
  9
$DIMALTZ
 70
     0
  9
$DIMALTTZ
 70
     0
  9
$DIMUPT
 70
     0
  9
$DIMDEC
 70
     2
  9
$DIMTDEC
 70
     2
  9
$DIMALTU
 70
     2
  9
$DIMALTTD
 70
     3
  9
$DIMTXSTY
  7
Standard
  9
$DIMAUNIT
 70
     0
  9
$DIMADEC
 70
     2
  9
$DIMALTRND
 40
0.0
  9
$DIMAZIN
 70
     0
  9
$DIMDSEP
 70
    44
  9
$DIMATFIT
 70
     3
  9
$DIMFRAC
 70
     0
  9
$DIMLDRBLK
  1

  9
$DIMLUNIT
 70
     2
  9
$DIMLWD
 70
    -2
  9
$DIMLWE
 70
    -2
  9
$DIMTMOVE
 70
     0
  9
$LUNITS
 70
     2
  9
$LUPREC
 70
     2
  9
$SKETCHINC
 40
1.0
  9
$FILLETRAD
 40
10.0
  9
$AUNITS
 70
     0
  9
$AUPREC
 70
     2
  9
$MENU
  1
.
  9
$ELEVATION
 40
0.0
  9
$PELEVATION
 40
0.0
  9
$THICKNESS
 40
0.0
  9
$LIMCHECK
 70
     0
  9
$CHAMFERA
 40
0.0
  9
$CHAMFERB
 40
0.0
  9
$CHAMFERC
 40
0.0
  9
$CHAMFERD
 40
0.0
  9
$SKPOLY
 70
     0
  9
$TDCREATE
 40
2458985.708833785
  9
$TDUCREATE
 40
2458985.583833785
  9
$TDUPDATE
 40
2458985.70883404
  9
$TDUUPDATE
 40
2458985.58383404
  9
$TDINDWG
 40
0.0000000116
  9
$TDUSRTIMER
 40
0.0000000116
  9
$USRTIMER
 70
     1
  9
$ANGBASE
 50
0.0
  9
$ANGDIR
 70
     0
  9
$PDMODE
 70
     0
  9
$PDSIZE
 40
-1.0
  9
$PLINEWID
 40
0.0
  9
$SPLFRAME
 70
     0
  9
$SPLINETYPE
 70
     6
  9
$SPLINESEGS
 70
     8
  9
$HANDSEED
  5
10A
  9
$SURFTAB1
 70
     6
  9
$SURFTAB2
 70
     6
  9
$SURFTYPE
 70
     6
  9
$SURFU
 70
     6
  9
$SURFV
 70
     6
  9
$UCSBASE
  2

  9
$UCSNAME
  2

  9
$UCSORG
 10
0.0
 20
0.0
 30
0.0
  9
$UCSXDIR
 10
1.0
 20
0.0
 30
0.0
  9
$UCSYDIR
 10
0.0
 20
1.0
 30
0.0
  9
$UCSORTHOREF
  2

  9
$UCSORTHOVIEW
 70
     0
  9
$UCSORGTOP
 10
0.0
 20
0.0
 30
0.0
  9
$UCSORGBOTTOM
 10
0.0
 20
0.0
 30
0.0
  9
$UCSORGLEFT
 10
0.0
 20
0.0
 30
0.0
  9
$UCSORGRIGHT
 10
0.0
 20
0.0
 30
0.0
  9
$UCSORGFRONT
 10
0.0
 20
0.0
 30
0.0
  9
$UCSORGBACK
 10
0.0
 20
0.0
 30
0.0
  9
$PUCSBASE
  2

  9
$PUCSNAME
  2

  9
$PUCSORG
 10
0.0
 20
0.0
 30
0.0
  9
$PUCSXDIR
 10
1.0
 20
0.0
 30
0.0
  9
$PUCSYDIR
 10
0.0
 20
1.0
 30
0.0
  9
$PUCSORTHOREF
  2

  9
$PUCSORTHOVIEW
 70
     0
  9
$PUCSORGTOP
 10
0.0
 20
0.0
 30
0.0
  9
$PUCSORGBOTTOM
 10
0.0
 20
0.0
 30
0.0
  9
$PUCSORGLEFT
 10
0.0
 20
0.0
 30
0.0
  9
$PUCSORGRIGHT
 10
0.0
 20
0.0
 30
0.0
  9
$PUCSORGFRONT
 10
0.0
 20
0.0
 30
0.0
  9
$PUCSORGBACK
 10
0.0
 20
0.0
 30
0.0
  9
$USERI1
 70
     0
  9
$USERI2
 70
     0
  9
$USERI3
 70
     0
  9
$USERI4
 70
     0
  9
$USERI5
 70
     0
  9
$USERR1
 40
0.0
  9
$USERR2
 40
0.0
  9
$USERR3
 40
0.0
  9
$USERR4
 40
0.0
  9
$USERR5
 40
0.0
  9
$WORLDVIEW
 70
     1
  9
$SHADEDGE
 70
     3
  9
$SHADEDIF
 70
    70
  9
$TILEMODE
 70
     1
  9
$MAXACTVP
 70
    64
  9
$PINSBASE
 10
0.0
 20
0.0
 30
0.0
  9
$PLIMCHECK
 70
     0
  9
$PEXTMIN
 10
1.0000000000E+20
 20
1.0000000000E+20
 30
1.0000000000E+20
  9
$PEXTMAX
 10
-1.0000000000E+20
 20
-1.0000000000E+20
 30
-1.0000000000E+20
  9
$PLIMMIN
 10
0.0
 20
0.0
  9
$PLIMMAX
 10
420.0
 20
297.0
  9
$UNITMODE
 70
     0
  9
$VISRETAIN
 70
     1
  9
$PLINEGEN
 70
     0
  9
$PSLTSCALE
 70
     1
  9
$TREEDEPTH
 70
  3020
  9
$CMLSTYLE
  2
Standard
  9
$CMLJUST
 70
     0
  9
$CMLSCALE
 40
20.0
  9
$PROXYGRAPHICS
 70
     1
  9
$MEASUREMENT
 70
     1
  9
$CELWEIGHT
370
    -1
  9
$ENDCAPS
280
     0
  9
$JOINSTYLE
280
     0
  9
$LWDISPLAY
290
     1
  9
$INSUNITS
 70
     4
  9
$HYPERLINKBASE
  1

  9
$STYLESHEET
  1

  9
$XEDIT
290
     1
  9
$CEPSNTYPE
380
     0
  9
$PSTYLEMODE
290
     1
  9
$FINGERPRINTGUID
  2
{7d03630a-759a-4381-9dc5-bbea3d26f7a9}
  9
$VERSIONGUID
  2
{FAEB1C32-E019-11D5-929B-00C0DF256EC4}
  9
$EXTNAMES
290
     1
  9
$PSVPSCALE
 40
0.0
  9
$OLESTARTUP
290
     0
  0
ENDSEC
  0
SECTION
  2
CLASSES
  0
CLASS
  1
ACDBDICTIONARYWDFLT
  2
AcDbDictionaryWithDefault
  3
ObjectDBX Classes
 90
        0
280
     0
281
     0
  0
CLASS
  1
VISUALSTYLE
  2
AcDbVisualStyle
  3
ObjectDBX Classes
 90
     4095
280
     0
281
     0
  0
CLASS
  1
MATERIAL
  2
AcDbMaterial
  3
ObjectDBX Classes
 90
     1153
280
     0
281
     0
  0
CLASS
  1
SCALE
  2
AcDbScale
  3
ObjectDBX Classes
 90
     1153
280
     0
281
     0
  0
CLASS
  1
TABLESTYLE
  2
AcDbTableStyle
  3
ObjectDBX Classes
 90
     4095
280
     0
281
     0
  0
CLASS
  1
MLEADERSTYLE
  2
AcDbMLeaderStyle
  3
ACDB_MLEADERSTYLE_CLASS
 90
     4095
280
     0
281
     0
  0
CLASS
  1
SUN
  2
AcDbSun
  3
SCENEOE
 90
     1153
280
     0
281
     0
  0
CLASS
  1
ACDBPLACEHOLDER
  2
AcDbPlaceHolder
  3
ObjectDBX Classes
 90
        0
280
     0
281
     0
  0
CLASS
  1
LAYOUT
  2
AcDbLayout
  3
ObjectDBX Classes
 90
        0
280
     0
281
     0
  0
ENDSEC
  0
SECTION
  2
TABLES
  0
TABLE
  2
VPORT
  5
8
330
0
100
AcDbSymbolTable
 70
     1
  0
VPORT
  5
29
330
8
100
AcDbSymbolTableRecord
100
AcDbViewportTableRecord
  2
*Active
 70
     0
 10
0.0
 20
0.0
 11
1.0
 21
1.0
 12
139.7
 22
107.95
 13
0.0
 23
0.0
 14
10.0
 24
10.0
 15
10.0
 25
10.0
 16
0.0
 26
0.0
 36
1.0
 17
0.0
 27
0.0
 37
0.0
 40
215.9
 41
1.2941176471
 42
50.0
 43
0.0
 44
0.0
 50
0.0
 51
0.0
 71
     0
 72
  2000
 73
     1
 74
     3
 75
     0
 76
     0
 77
     0
 78
     0
281
     0
 65
     1
110
0.0
120
0.0
130
0.0
111
1.0
121
0.0
131
0.0
112
0.0
122
1.0
132
0.0
 79
     0
146
0.0
  0
ENDTAB
  0
TABLE
  2
LTYPE
  5
5
330
0
100
AcDbSymbolTable
 70
     6
  0
LTYPE
  5
14
330
5
100
AcDbSymbolTableRecord
100
AcDbLinetypeTableRecord
  2
ByBlock
 70
     0
  3

 72
    65
 73
     0
 40
0.0
  0
LTYPE
  5
15
330
5
100
AcDbSymbolTableRecord
100
AcDbLinetypeTableRecord
  2
ByLayer
 70
     0
  3

 72
    65
 73
     0
 40
0.0
  0
LTYPE
  5
16
330
5
100
AcDbSymbolTableRecord
100
AcDbLinetypeTableRecord
  2
Continuous
 70
     0
  3
Solid line
 72
    65
 73
     0
 40
0.0
  0
LTYPE
  5
6E
330
5
100
AcDbSymbolTableRecord
100
AcDbLinetypeTableRecord
  2
HIDDEN
 70
     0
  3
Hidden __ __ __ __ __ __ __ __ __ __ __ __ __ __
 72
    65
 73
     2
 40
1.905
 49
1.27
 74
     0
 49
-0.635
 74
     0
  0
LTYPE
  5
6F
330
5
100
AcDbSymbolTableRecord
100
AcDbLinetypeTableRecord
  2
PHANTOM
 70
     0
  3
Phantom ______  __  __  ______  __  __  ______
 72
    65
 73
     6
 40
12.7
 49
6.35
 74
     0
 49
-1.27
 74
     0
 49
1.27
 74
     0
 49
-1.27
 74
     0
 49
1.27
 74
     0
 49
-1.27
 74
     0
  0
LTYPE
  5
70
330
5
100
AcDbSymbolTableRecord
100
AcDbLinetypeTableRecord
  2
CENTER
 70
     0
  3
Center ____ _ ____ _ ____ _ ____ _ ____ _ ____
 72
    65
 73
     4
 40
10.16
 49
6.35
 74
     0
 49
-1.27
 74
     0
 49
1.27
 74
     0
 49
-1.27
 74
     0
  0
LTYPE
  5
71
330
5
100
AcDbSymbolTableRecord
100
AcDbLinetypeTableRecord
  2
CENTERX2
 70
     0
  3
Center (2x) ________  __  ________  __  _____
 72
    65
 73
     4
 40
20.32
 49
12.7
 74
     0
 49
-2.54
 74
     0
 49
2.54
 74
     0
 49
-2.54
 74
     0
  0
LTYPE
  5
72
330
5
100
AcDbSymbolTableRecord
100
AcDbLinetypeTableRecord
  2
DOT2
 70
     0
  3
Dot (.5x) ........................................
 72
    65
 73
     2
 40
0.635
 49
0.0
 74
     0
 49
-0.635
 74
     0
  0
ENDTAB
  0
TABLE
  2
LAYER
  5
2
330
0
100
AcDbSymbolTable
 70
    17
  0
LAYER
  5
10
330
2
100
AcDbSymbolTableRecord
100
AcDbLayerTableRecord
  2
0
 70
     0
 62
     7
  6
Continuous
370
    -3
390
F
  0
LAYER
  5
73
330
2
100
AcDbSymbolTableRecord
100
AcDbLayerTableRecord
  2
FORMAT
 70
     0
 62
     7
  6
Continuous
370
    -3
390
F
  0
LAYER
  5
74
330
2
100
AcDbSymbolTableRecord
100
AcDbLayerTableRecord
  2
YARDIMCI_GEOMETRI
 70
     0
 62
    -6
  6
Continuous
290
     0
370
    -3
390
F
  0
LAYER
  5
75
330
2
100
AcDbSymbolTableRecord
100
AcDbLayerTableRecord
  2
SAYFA_CERCEVESI
 70
     0
 62
     7
  6
Continuous
370
    25
390
F
  0
LAYER
  5
76
330
2
100
AcDbSymbolTableRecord
100
AcDbLayerTableRecord
  2
ANTET
 70
     0
 62
     7
  6
Continuous
370
    -3
390
F
  0
LAYER
  5
77
330
2
100
AcDbSymbolTableRecord
100
AcDbLayerTableRecord
  2
OLCU
 70
     0
 62
   150
  6
Continuous
370
    -3
390
F
  0
LAYER
  5
78
330
2
100
AcDbSymbolTableRecord
100
AcDbLayerTableRecord
  2
METIN
 70
     0
 62
    96
  6
Continuous
370
    -3
390
F
  0
LAYER
  5
79
330
2
100
AcDbSymbolTableRecord
100
AcDbLayerTableRecord
  2
BALON
 70
     0
 62
     5
  6
Continuous
370
    -3
390
F
  0
LAYER
  5
7A
330
2
100
AcDbSymbolTableRecord
100
AcDbLayerTableRecord
  2
VURGU
 70
     0
 62
     7
  6
Continuous
370
    -3
390
F
  0
LAYER
  5
7B
330
2
100
AcDbSymbolTableRecord
100
AcDbLayerTableRecord
  2
SILIK
 70
     0
 62
     7
  6
Continuous
370
    -3
390
F
  0
LAYER
  5
7C
330
2
100
AcDbSymbolTableRecord
100
AcDbLayerTableRecord
  2
MODEL
 70
     0
 62
     7
  6
Continuous
370
    -3
390
F
  0
LAYER
  5
7D
330
2
100
AcDbSymbolTableRecord
100
AcDbLayerTableRecord
  2
DETAYLANDıRMA
 70
     0
 62
   190
  6
Continuous
370
    -3
390
F
  0
LAYER
  5
7E
330
2
100
AcDbSymbolTableRecord
100
AcDbLayerTableRecord
  2
TOLERANS
 70
     0
 62
   230
  6
Continuous
370
    -3
390
F
  0
LAYER
  5
7F
330
2
100
AcDbSymbolTableRecord
100
AcDbLayerTableRecord
  2
MERKEZ_CIZGILERI
 70
     0
 62
    30
  6
Continuous
370
    -3
390
F
  0
LAYER
  5
80
330
2
100
AcDbSymbolTableRecord
100
AcDbLayerTableRecord
  2
KESIT-DETAY_CIZGILERI
 70
     0
 62
     7
  6
Continuous
370
    -3
390
F
  0
LAYER
  5
81
330
2
100
AcDbSymbolTableRecord
100
AcDbLayerTableRecord
  2
\U+041E\U+0421\U+0415\U+0412\U+042B\U+0415
 70
     0
 62
     7
  6
Continuous
370
    -3
390
F
  0
LAYER
  5
82
330
2
100
AcDbSymbolTableRecord
100
AcDbLayerTableRecord
  2
\U+0412\U+041E\U+0414\U+042F\U+041D\U+042B\U+0415_\U+0417\U+041D\U+0410\U+041A\U+0418
 70
     0
 62
    11
  6
Continuous
370
    -3
390
F
  0
ENDTAB
  0
TABLE
  2
STYLE
  5
3
330
0
100
AcDbSymbolTable
 70
     1
  0
STYLE
  5
11
330
3
100
AcDbSymbolTableRecord
100
AcDbTextStyleTableRecord
  2
Standard
 70
     0
 40
0.0
 41
1.0
 50
0.0
 71
     0
 42
3.5
  3
txt
  4

  0
ENDTAB
  0
TABLE
  2
VIEW
  5
6
330
0
100
AcDbSymbolTable
 70
     0
  0
ENDTAB
  0
TABLE
  2
UCS
  5
7
330
0
100
AcDbSymbolTable
 70
     0
  0
ENDTAB
  0
TABLE
  2
APPID
  5
9
330
0
100
AcDbSymbolTable
 70
     1
  0
APPID
  5
12
330
9
100
AcDbSymbolTableRecord
100
AcDbRegAppTableRecord
  2
ACAD
 70
     0
  0
ENDTAB
  0
TABLE
  2
DIMSTYLE
  5
A
330
0
100
AcDbSymbolTable
 70
     1
100
AcDbDimStyleTable
  0
DIMSTYLE
105
27
330
A
100
AcDbSymbolTableRecord
100
AcDbDimStyleTableRecord
  2
ISO-25
 70
     0
 41
2.5
 42
0.625
 43
3.75
 44
1.25
 73
     0
 74
     0
 77
     1
 78
     8
140
2.5
141
2.5
143
0.0393700787
147
0.625
171
     3
172
     1
178
     0
271
     2
272
     2
274
     3
278
    44
283
     0
284
     8
340
11
  0
ENDTAB
  0
TABLE
  2
BLOCK_RECORD
  5
1
330
0
100
AcDbSymbolTable
 70
     2
  0
BLOCK_RECORD
  5
1F
330
1
100
AcDbSymbolTableRecord
100
AcDbBlockTableRecord
  2
*Model_Space
340
22
  0
BLOCK_RECORD
  5
1B
330
1
100
AcDbSymbolTableRecord
100
AcDbBlockTableRecord
  2
*Paper_Space
340
1E
  0
BLOCK_RECORD
  5
23
330
1
100
AcDbSymbolTableRecord
100
AcDbBlockTableRecord
  2
*Paper_Space0
340
26
  0
BLOCK_RECORD
  5
88
330
1
100
AcDbSymbolTableRecord
100
AcDbBlockTableRecord
  2
SW_CENTERMARKSYMBOL_0
340
0
102
{BLKREFS
331
93
102
}
  0
ENDTAB
  0
ENDSEC
  0
SECTION
  2
BLOCKS
  0
BLOCK
  5
20
330
1F
100
AcDbEntity
  8
0
100
AcDbBlockBegin
  2
*Model_Space
 70
     0
 10
0.0
 20
0.0
 30
0.0
  3
*Model_Space
  1

  0
ENDBLK
  5
21
330
1F
100
AcDbEntity
  8
0
100
AcDbBlockEnd
  0
BLOCK
  5
1C
330
1B
100
AcDbEntity
 67
     1
  8
0
100
AcDbBlockBegin
  2
*Paper_Space
 70
     0
 10
0.0
 20
0.0
 30
0.0
  3
*Paper_Space
  1

  0
ENDBLK
  5
1D
330
1B
100
AcDbEntity
 67
     1
  8
0
100
AcDbBlockEnd
  0
BLOCK
  5
24
330
23
100
AcDbEntity
  8
0
100
AcDbBlockBegin
  2
*Paper_Space0
 70
     0
 10
0.0
 20
0.0
 30
0.0
  3
*Paper_Space0
  1

  0
ENDBLK
  5
25
330
23
100
AcDbEntity
  8
0
100
AcDbBlockEnd
  0
BLOCK
  5
89
330
88
100
AcDbEntity
  8
0
100
AcDbBlockBegin
  2
SW_CENTERMARKSYMBOL_0
 70
     0
 10
0.0
 20
0.0
 30
0.0
  3
SW_CENTERMARKSYMBOL_0
  1

  0
LINE
  5
8B
330
88
100
AcDbEntity
  8
FORMAT
 62
     0
100
AcDbLine
 10
0.0
 20
0.0
 30
0.0
 11
0.0
 21
2.5
 31
0.0
  0
LINE
  5
8C
330
88
100
AcDbEntity
  8
FORMAT
 62
     0
100
AcDbLine
 10
0.0
 20
0.0
 30
0.0
 11
-2.5
 21
0.0
 31
0.0
  0
LINE
  5
8D
330
88
100
AcDbEntity
  8
FORMAT
 62
     0
100
AcDbLine
 10
0.0
 20
0.0
 30
0.0
 11
0.0
 21
-2.5
 31
0.0
  0
LINE
  5
8E
330
88
100
AcDbEntity
  8
FORMAT
 62
     0
100
AcDbLine
 10
0.0
 20
0.0
 30
0.0
 11
2.5
 21
0.0
 31
0.0
  0
LINE
  5
8F
330
88
100
AcDbEntity
  8
FORMAT
 62
     0
100
AcDbLine
 10
0.0
 20
5.0
 30
0.0
 11
0.0
 21
115.0
 31
0.0
  0
LINE
  5
90
330
88
100
AcDbEntity
  8
FORMAT
 62
     0
100
AcDbLine
 10
-5.0
 20
0.0
 30
0.0
 11
-115.0
 21
0.0
 31
0.0
  0
LINE
  5
91
330
88
100
AcDbEntity
  8
FORMAT
 62
     0
100
AcDbLine
 10
0.0
 20
-5.0
 30
0.0
 11
0.0
 21
-115.0
 31
0.0
  0
LINE
  5
92
330
88
100
AcDbEntity
  8
FORMAT
 62
     0
100
AcDbLine
 10
5.0
 20
0.0
 30
0.0
 11
115.0
 21
0.0
 31
0.0
  0
ENDBLK
  5
8A
330
88
100
AcDbEntity
  8
0
100
AcDbBlockEnd
  0
ENDSEC
  0
SECTION
  2
ENTITIES
  0
CIRCLE
  5
83
330
1F
100
AcDbEntity
  8
0
  6
Continuous
 62
     7
370
    25
100
AcDbCircle
 10
136.3914362981
 20
115.8905528846
 30
0.0
 40
65.4
  0
CIRCLE
  5
84
330
1F
100
AcDbEntity
  8
0
  6
Continuous
 62
     7
370
    25
100
AcDbCircle
 10
136.3914362981
 20
115.8905528846
 30
0.0
 40
80.00000000000001
  0
CIRCLE
  5
85
330
1F
100
AcDbEntity
  8
0
  6
Continuous
 62
     7
370
    25
100
AcDbCircle
 10
136.3914362981
 20
115.8905528846
 30
0.0
 40
90.0
  0
CIRCLE
  5
86
330
1F
100
AcDbEntity
  8
0
  6
Continuous
 62
     7
370
    25
100
AcDbCircle
 10
136.3914362981
 20
115.8905528846
 30
0.0
 40
100.0
  0
CIRCLE
  5
87
330
1F
100
AcDbEntity
  8
0
  6
Continuous
 62
     7
370
    25
100
AcDbCircle
 10
136.3914362981
 20
115.8905528846
 30
0.0
 40
112.5
  0
INSERT
  5
93
330
1F
100
AcDbEntity
  8
FORMAT
 62
     7
100
AcDbBlockReference
  2
SW_CENTERMARKSYMBOL_0
 10
136.3914362981
 20
115.8905528846
 30
0.0
  0
LINE
  5
94
330
1F
100
AcDbEntity
  8
0
  6
Continuous
 62
     7
370
    25
100
AcDbLine
 10
427.1837590326
 20
3.3905528846
 30
0.0
 11
463.1837590326
 21
3.3905528846
 31
0.0
  0
LINE
  5
95
330
1F
100
AcDbEntity
  8
0
  6
Continuous
 62
     7
370
    25
100
AcDbLine
 10
463.1837590326
 20
228.3905528846
 30
0.0
 11
427.1837590326
 21
228.3905528846
 31
0.0
  0
LINE
  5
96
330
1F
100
AcDbEntity
  8
0
  6
Continuous
 62
     7
370
    25
100
AcDbLine
 10
463.1837590326
 20
3.3905528846
 30
0.0
 11
473.5683744172
 21
15.8905528846
 31
0.0
  0
LINE
  5
97
330
1F
100
AcDbEntity
  8
0
  6
Continuous
 62
     7
370
    25
100
AcDbLine
 10
473.5683744172
 20
215.8905528846
 30
0.0
 11
463.1837590326
 21
228.3905528846
 31
0.0
  0
LINE
  5
98
330
1F
100
AcDbEntity
  8
0
  6
Continuous
 62
     7
370
    25
100
AcDbLine
 10
473.5683744172
 20
15.8905528846
 30
0.0
 11
509.5683744172
 21
15.8905528846
 31
0.0
  0
LINE
  5
99
330
1F
100
AcDbEntity
  8
0
  6
Continuous
 62
     7
370
    25
100
AcDbLine
 10
509.5683744172
 20
215.8905528846
 30
0.0
 11
473.5683744172
 21
215.8905528846
 31
0.0
  0
LINE
  5
9A
330
1F
100
AcDbEntity
  8
0
  6
Continuous
 62
     7
370
    25
100
AcDbLine
 10
509.5683744172
 20
15.8905528846
 30
0.0
 11
517.8760667249
 21
25.8905528846
 31
0.0
  0
LINE
  5
9B
330
1F
100
AcDbEntity
  8
0
  6
Continuous
 62
     7
370
    25
100
AcDbLine
 10
517.8760667249
 20
205.8905528846
 30
0.0
 11
509.5683744172
 21
215.8905528846
 31
0.0
  0
LINE
  5
9C
330
1F
100
AcDbEntity
  8
0
  6
Continuous
 62
     7
370
    25
100
AcDbLine
 10
517.8760667249
 20
25.8905528846
 30
0.0
 11
553.8760667249
 21
25.8905528846
 31
0.0
  0
LINE
  5
9D
330
1F
100
AcDbEntity
  8
0
  6
Continuous
 62
     7
370
    25
100
AcDbLine
 10
553.8760667249
 20
205.8905528846
 30
0.0
 11
517.8760667249
 21
205.8905528846
 31
0.0
  0
LINE
  5
9E
330
1F
100
AcDbEntity
  8
0
  6
Continuous
 62
     7
370
    25
100
AcDbLine
 10
553.8760667249
 20
25.8905528846
 30
0.0
 11
562.1837590326
 21
35.8905528846
 31
0.0
  0
LINE
  5
9F
330
1F
100
AcDbEntity
  8
0
  6
Continuous
 62
     7
370
    25
100
AcDbLine
 10
562.1837590326
 20
195.8905528846
 30
0.0
 11
553.8760667249
 21
205.8905528846
 31
0.0
  0
LINE
  5
A0
330
1F
100
AcDbEntity
  8
0
  6
Continuous
 62
     7
370
    25
100
AcDbLine
 10
562.1837590326
 20
35.8905528846
 30
0.0
 11
598.1837590326
 21
35.8905528846
 31
0.0
  0
LINE
  5
A1
330
1F
100
AcDbEntity
  8
0
  6
Continuous
 62
     7
370
    25
100
AcDbLine
 10
598.1837590326
 20
195.8905528846
 30
0.0
 11
562.1837590326
 21
195.8905528846
 31
0.0
  0
LINE
  5
A2
330
1F
100
AcDbEntity
  8
0
  6
Continuous
 62
     7
370
    25
100
AcDbLine
 10
463.1837590326
 20
115.8905528846
 30
0.0
 11
463.1837590326
 21
228.3905528846
 31
0.0
  0
LINE
  5
A3
330
1F
100
AcDbEntity
  8
0
  6
Continuous
 62
     7
370
    25
100
AcDbLine
 10
463.1837590326
 20
3.3905528846
 30
0.0
 11
463.1837590326
 21
115.8905528846
 31
0.0
  0
LINE
  5
A4
330
1F
100
AcDbEntity
  8
0
  6
Continuous
 62
     7
370
    25
100
AcDbLine
 10
427.1837590326
 20
115.8905528846
 30
0.0
 11
427.1837590326
 21
228.3905528846
 31
0.0
  0
LINE
  5
A5
330
1F
100
AcDbEntity
  8
0
  6
Continuous
 62
     7
370
    25
100
AcDbLine
 10
427.1837590326
 20
3.3905528846
 30
0.0
 11
427.1837590326
 21
115.8905528846
 31
0.0
  0
LINE
  5
A6
330
1F
100
AcDbEntity
  8
0
  6
Continuous
 62
     7
370
    25
100
AcDbLine
 10
473.5683744172
 20
115.8905528846
 30
0.0
 11
473.5683744172
 21
215.8905528846
 31
0.0
  0
LINE
  5
A7
330
1F
100
AcDbEntity
  8
0
  6
Continuous
 62
     7
370
    25
100
AcDbLine
 10
473.5683744172
 20
15.8905528846
 30
0.0
 11
473.5683744172
 21
115.8905528846
 31
0.0
  0
LINE
  5
A8
330
1F
100
AcDbEntity
  8
0
  6
Continuous
 62
     7
370
    25
100
AcDbLine
 10
509.5683744172
 20
115.8905528846
 30
0.0
 11
509.5683744172
 21
215.8905528846
 31
0.0
  0
LINE
  5
A9
330
1F
100
AcDbEntity
  8
0
  6
Continuous
 62
     7
370
    25
100
AcDbLine
 10
509.5683744172
 20
15.8905528846
 30
0.0
 11
509.5683744172
 21
115.8905528846
 31
0.0
  0
LINE
  5
AA
330
1F
100
AcDbEntity
  8
0
  6
Continuous
 62
     7
370
    25
100
AcDbLine
 10
517.8760667249
 20
115.8905528846
 30
0.0
 11
517.8760667249
 21
205.8905528846
 31
0.0
  0
LINE
  5
AB
330
1F
100
AcDbEntity
  8
0
  6
Continuous
 62
     7
370
    25
100
AcDbLine
 10
517.8760667249
 20
25.8905528846
 30
0.0
 11
517.8760667249
 21
115.8905528846
 31
0.0
  0
LINE
  5
AC
330
1F
100
AcDbEntity
  8
0
  6
Continuous
 62
     7
370
    25
100
AcDbLine
 10
553.8760667249
 20
115.8905528846
 30
0.0
 11
553.8760667249
 21
205.8905528846
 31
0.0
  0
LINE
  5
AD
330
1F
100
AcDbEntity
  8
0
  6
Continuous
 62
     7
370
    25
100
AcDbLine
 10
553.8760667249
 20
25.8905528846
 30
0.0
 11
553.8760667249
 21
115.8905528846
 31
0.0
  0
LINE
  5
AE
330
1F
100
AcDbEntity
  8
0
  6
Continuous
 62
     7
370
    25
100
AcDbLine
 10
562.1837590326
 20
115.8905528846
 30
0.0
 11
562.1837590326
 21
195.8905528846
 31
0.0
  0
LINE
  5
AF
330
1F
100
AcDbEntity
  8
0
  6
Continuous
 62
     7
370
    25
100
AcDbLine
 10
562.1837590326
 20
35.8905528846
 30
0.0
 11
562.1837590326
 21
115.8905528846
 31
0.0
  0
LINE
  5
B0
330
1F
100
AcDbEntity
  8
0
  6
Continuous
 62
     7
370
    25
100
AcDbLine
 10
598.1837590326
 20
115.8905528846
 30
0.0
 11
598.1837590326
 21
195.8905528846
 31
0.0
  0
LINE
  5
B1
330
1F
100
AcDbEntity
  8
0
  6
Continuous
 62
     7
370
    25
100
AcDbLine
 10
598.1837590326
 20
35.8905528846
 30
0.0
 11
598.1837590326
 21
115.8905528846
 31
0.0
  0
LINE
  5
B2
330
1F
100
AcDbEntity
  8
0
  6
Continuous
 62
     7
370
    25
100
AcDbLine
 10
-150.7571182975
 20
228.3905528846
 30
0.0
 11
-186.7571182975
 21
228.3905528846
 31
0.0
  0
LINE
  5
B3
330
1F
100
AcDbEntity
  8
0
  6
Continuous
 62
     7
370
    25
100
AcDbLine
 10
-186.7571182975
 20
3.3905528846
 30
0.0
 11
-150.7571182975
 21
3.3905528846
 31
0.0
  0
LINE
  5
B4
330
1F
100
AcDbEntity
  8
0
  6
Continuous
 62
     7
370
    25
100
AcDbLine
 10
-186.7571182975
 20
228.3905528846
 30
0.0
 11
-197.1417336821
 21
215.8905528846
 31
0.0
  0
LINE
  5
B5
330
1F
100
AcDbEntity
  8
0
  6
Continuous
 62
     7
370
    25
100
AcDbLine
 10
-197.1417336821
 20
15.8905528846
 30
0.0
 11
-186.7571182975
 21
3.3905528846
 31
0.0
  0
LINE
  5
B6
330
1F
100
AcDbEntity
  8
0
  6
Continuous
 62
     7
370
    25
100
AcDbLine
 10
-197.1417336821
 20
215.8905528846
 30
0.0
 11
-233.1417336821
 21
215.8905528846
 31
0.0
  0
LINE
  5
B7
330
1F
100
AcDbEntity
  8
0
  6
Continuous
 62
     7
370
    25
100
AcDbLine
 10
-233.1417336821
 20
15.8905528846
 30
0.0
 11
-197.1417336821
 21
15.8905528846
 31
0.0
  0
LINE
  5
B8
330
1F
100
AcDbEntity
  8
0
  6
Continuous
 62
     7
370
    25
100
AcDbLine
 10
-233.1417336821
 20
215.8905528846
 30
0.0
 11
-241.4494259898
 21
205.8905528846
 31
0.0
  0
LINE
  5
B9
330
1F
100
AcDbEntity
  8
0
  6
Continuous
 62
     7
370
    25
100
AcDbLine
 10
-241.4494259898
 20
25.8905528846
 30
0.0
 11
-233.1417336821
 21
15.8905528846
 31
0.0
  0
LINE
  5
BA
330
1F
100
AcDbEntity
  8
0
  6
Continuous
 62
     7
370
    25
100
AcDbLine
 10
-241.4494259898
 20
205.8905528846
 30
0.0
 11
-277.4494259898
 21
205.8905528846
 31
0.0
  0
LINE
  5
BB
330
1F
100
AcDbEntity
  8
0
  6
Continuous
 62
     7
370
    25
100
AcDbLine
 10
-277.4494259898
 20
25.8905528846
 30
0.0
 11
-241.4494259898
 21
25.8905528846
 31
0.0
  0
LINE
  5
BC
330
1F
100
AcDbEntity
  8
0
  6
Continuous
 62
     7
370
    25
100
AcDbLine
 10
-277.4494259898
 20
205.8905528846
 30
0.0
 11
-285.7571182975
 21
195.8905528846
 31
0.0
  0
LINE
  5
BD
330
1F
100
AcDbEntity
  8
0
  6
Continuous
 62
     7
370
    25
100
AcDbLine
 10
-285.7571182975
 20
35.8905528846
 30
0.0
 11
-277.4494259898
 21
25.8905528846
 31
0.0
  0
LINE
  5
BE
330
1F
100
AcDbEntity
  8
0
  6
Continuous
 62
     7
370
    25
100
AcDbLine
 10
-285.7571182975
 20
195.8905528846
 30
0.0
 11
-321.7571182975
 21
195.8905528846
 31
0.0
  0
LINE
  5
BF
330
1F
100
AcDbEntity
  8
0
  6
Continuous
 62
     7
370
    25
100
AcDbLine
 10
-321.7571182975
 20
35.8905528846
 30
0.0
 11
-285.7571182975
 21
35.8905528846
 31
0.0
  0
LINE
  5
C0
330
1F
100
AcDbEntity
  8
0
  6
Continuous
 62
     7
370
    25
100
AcDbLine
 10
-186.7571182975
 20
228.3905528846
 30
0.0
 11
-186.7571182975
 21
3.3905528846
 31
0.0
  0
LINE
  5
C1
330
1F
100
AcDbEntity
  8
0
  6
Continuous
 62
     7
370
    25
100
AcDbLine
 10
-150.7571182975
 20
228.3905528846
 30
0.0
 11
-150.7571182975
 21
3.3905528846
 31
0.0
  0
LINE
  5
C2
330
1F
100
AcDbEntity
  8
0
  6
Continuous
 62
     7
370
    25
100
AcDbLine
 10
-197.1417336821
 20
215.8905528846
 30
0.0
 11
-197.1417336821
 21
15.8905528846
 31
0.0
  0
LINE
  5
C3
330
1F
100
AcDbEntity
  8
0
  6
Continuous
 62
     7
370
    25
100
AcDbLine
 10
-233.1417336821
 20
215.8905528846
 30
0.0
 11
-233.1417336821
 21
15.8905528846
 31
0.0
  0
LINE
  5
C4
330
1F
100
AcDbEntity
  8
0
  6
Continuous
 62
     7
370
    25
100
AcDbLine
 10
-241.4494259898
 20
205.8905528846
 30
0.0
 11
-241.4494259898
 21
25.8905528846
 31
0.0
  0
LINE
  5
C5
330
1F
100
AcDbEntity
  8
0
  6
Continuous
 62
     7
370
    25
100
AcDbLine
 10
-277.4494259898
 20
205.8905528846
 30
0.0
 11
-277.4494259898
 21
25.8905528846
 31
0.0
  0
LINE
  5
C6
330
1F
100
AcDbEntity
  8
0
  6
Continuous
 62
     7
370
    25
100
AcDbLine
 10
-285.7571182975
 20
195.8905528846
 30
0.0
 11
-285.7571182975
 21
35.8905528846
 31
0.0
  0
LINE
  5
C7
330
1F
100
AcDbEntity
  8
0
  6
Continuous
 62
     7
370
    25
100
AcDbLine
 10
-321.7571182975
 20
195.8905528846
 30
0.0
 11
-321.7571182975
 21
35.8905528846
 31
0.0
  0
LINE
  5
C8
330
1F
100
AcDbEntity
  8
0
  6
Continuous
 62
     7
370
    25
100
AcDbLine
 10
248.8914362981
 20
328.7369877329
 30
0.0
 11
248.8914362981
 21
364.7369877329
 31
0.0
  0
LINE
  5
C9
330
1F
100
AcDbEntity
  8
0
  6
Continuous
 62
     7
370
    25
100
AcDbLine
 10
23.8914362981
 20
364.7369877329
 30
0.0
 11
23.8914362981
 21
328.7369877329
 31
0.0
  0
LINE
  5
CA
330
1F
100
AcDbEntity
  8
0
  6
Continuous
 62
     7
370
    25
100
AcDbLine
 10
248.8914362981
 20
364.7369877329
 30
0.0
 11
236.3914362981
 21
375.1216031175
 31
0.0
  0
LINE
  5
CB
330
1F
100
AcDbEntity
  8
0
  6
Continuous
 62
     7
370
    25
100
AcDbLine
 10
36.3914362981
 20
375.1216031175
 30
0.0
 11
23.8914362981
 21
364.7369877329
 31
0.0
  0
LINE
  5
CC
330
1F
100
AcDbEntity
  8
0
  6
Continuous
 62
     7
370
    25
100
AcDbLine
 10
236.3914362981
 20
375.1216031175
 30
0.0
 11
236.3914362981
 21
411.1216031175
 31
0.0
  0
LINE
  5
CD
330
1F
100
AcDbEntity
  8
0
  6
Continuous
 62
     7
370
    25
100
AcDbLine
 10
36.3914362981
 20
411.1216031175
 30
0.0
 11
36.3914362981
 21
375.1216031175
 31
0.0
  0
LINE
  5
CE
330
1F
100
AcDbEntity
  8
0
  6
Continuous
 62
     7
370
    25
100
AcDbLine
 10
236.3914362981
 20
411.1216031175
 30
0.0
 11
226.3914362981
 21
419.4292954252
 31
0.0
  0
LINE
  5
CF
330
1F
100
AcDbEntity
  8
0
  6
Continuous
 62
     7
370
    25
100
AcDbLine
 10
46.3914362981
 20
419.4292954252
 30
0.0
 11
36.3914362981
 21
411.1216031175
 31
0.0
  0
LINE
  5
D0
330
1F
100
AcDbEntity
  8
0
  6
Continuous
 62
     7
370
    25
100
AcDbLine
 10
226.3914362981
 20
419.4292954252
 30
0.0
 11
226.3914362981
 21
455.4292954252
 31
0.0
  0
LINE
  5
D1
330
1F
100
AcDbEntity
  8
0
  6
Continuous
 62
     7
370
    25
100
AcDbLine
 10
46.3914362981
 20
455.4292954252
 30
0.0
 11
46.3914362981
 21
419.4292954252
 31
0.0
  0
LINE
  5
D2
330
1F
100
AcDbEntity
  8
0
  6
Continuous
 62
     7
370
    25
100
AcDbLine
 10
226.3914362981
 20
455.4292954252
 30
0.0
 11
216.3914362981
 21
463.7369877329
 31
0.0
  0
LINE
  5
D3
330
1F
100
AcDbEntity
  8
0
  6
Continuous
 62
     7
370
    25
100
AcDbLine
 10
56.3914362981
 20
463.7369877329
 30
0.0
 11
46.3914362981
 21
455.4292954252
 31
0.0
  0
LINE
  5
D4
330
1F
100
AcDbEntity
  8
0
  6
Continuous
 62
     7
370
    25
100
AcDbLine
 10
216.3914362981
 20
463.7369877329
 30
0.0
 11
216.3914362981
 21
499.7369877329
 31
0.0
  0
LINE
  5
D5
330
1F
100
AcDbEntity
  8
0
  6
Continuous
 62
     7
370
    25
100
AcDbLine
 10
56.3914362981
 20
499.7369877329
 30
0.0
 11
56.3914362981
 21
463.7369877329
 31
0.0
  0
LINE
  5
D6
330
1F
100
AcDbEntity
  8
0
  6
Continuous
 62
     7
370
    25
100
AcDbLine
 10
248.8914362981
 20
364.7369877329
 30
0.0
 11
23.8914362981
 21
364.7369877329
 31
0.0
  0
LINE
  5
D7
330
1F
100
AcDbEntity
  8
0
  6
Continuous
 62
     7
370
    25
100
AcDbLine
 10
248.8914362981
 20
328.7369877329
 30
0.0
 11
23.8914362981
 21
328.7369877329
 31
0.0
  0
LINE
  5
D8
330
1F
100
AcDbEntity
  8
0
  6
Continuous
 62
     7
370
    25
100
AcDbLine
 10
236.3914362981
 20
375.1216031175
 30
0.0
 11
36.3914362981
 21
375.1216031175
 31
0.0
  0
LINE
  5
D9
330
1F
100
AcDbEntity
  8
0
  6
Continuous
 62
     7
370
    25
100
AcDbLine
 10
236.3914362981
 20
411.1216031175
 30
0.0
 11
36.3914362981
 21
411.1216031175
 31
0.0
  0
LINE
  5
DA
330
1F
100
AcDbEntity
  8
0
  6
Continuous
 62
     7
370
    25
100
AcDbLine
 10
226.3914362981
 20
419.4292954252
 30
0.0
 11
46.3914362981
 21
419.4292954252
 31
0.0
  0
LINE
  5
DB
330
1F
100
AcDbEntity
  8
0
  6
Continuous
 62
     7
370
    25
100
AcDbLine
 10
226.3914362981
 20
455.4292954252
 30
0.0
 11
46.3914362981
 21
455.4292954252
 31
0.0
  0
LINE
  5
DC
330
1F
100
AcDbEntity
  8
0
  6
Continuous
 62
     7
370
    25
100
AcDbLine
 10
216.3914362981
 20
463.7369877329
 30
0.0
 11
56.3914362981
 21
463.7369877329
 31
0.0
  0
LINE
  5
DD
330
1F
100
AcDbEntity
  8
0
  6
Continuous
 62
     7
370
    25
100
AcDbLine
 10
216.3914362981
 20
499.7369877329
 30
0.0
 11
56.3914362981
 21
499.7369877329
 31
0.0
  0
LINE
  5
DE
330
1F
100
AcDbEntity
  8
0
  6
Continuous
 62
     7
370
    25
100
AcDbLine
 10
458.3650070504
 20
-76.5307045144
 30
0.0
 11
432.9091629276
 21
-61.8353585016
 31
0.0
  0
LINE
  5
DF
330
1F
100
AcDbEntity
  8
0
  6
Continuous
 62
     7
370
    25
100
AcDbLine
 10
352.9156643168
 20
-200.4031764825
 30
0.0
 11
378.3715084395
 21
-215.0985224953
 31
0.0
  0
LINE
  5
E0
330
1F
100
AcDbEntity
  8
0
  6
Continuous
 62
     7
370
    25
100
AcDbLine
 10
494.694870403
 20
-85.9567955986
 30
0.0
 11
469.2390262803
 21
-71.2614495858
 31
0.0
  0
LINE
  5
E1
330
1F
100
AcDbEntity
  8
0
  6
Continuous
 62
     7
370
    25
100
AcDbLine
 10
379.2463403431
 20
-227.1502448144
 30
0.0
 11
404.7021844658
 21
-241.8455908272
 31
0.0
  0
LINE
  5
E2
330
1F
100
AcDbEntity
  8
0
  6
Continuous
 62
     7
370
    25
100
AcDbLine
 10
531.0247337557
 20
-95.3828866829
 30
0.0
 11
505.568889633
 21
-80.6875406701
 31
0.0
  0
LINE
  5
E3
330
1F
100
AcDbEntity
  8
0
  6
Continuous
 62
     7
370
    25
100
AcDbLine
 10
405.5770163694
 20
-253.8973131462
 30
0.0
 11
431.0328604921
 21
-268.592659159
 31
0.0
  0
LINE
  5
E4
330
1F
100
AcDbEntity
  8
0
  6
Continuous
 62
     7
370
    25
100
AcDbLine
 10
570.0731019159
 20
-103.491664035
 30
0.0
 11
544.6172577932
 21
-88.7963180222
 31
0.0
  0
LINE
  5
E5
330
1F
100
AcDbEntity
  8
0
  6
Continuous
 62
     7
370
    25
100
AcDbLine
 10
432.1264003716
 20
-283.6573120579
 30
0.0
 11
457.5822444943
 21
-298.3526580707
 31
0.0
  0
LWPOLYLINE
  5
E6
330
1F
100
AcDbEntity
  8
0
  6
Continuous
 62
     7
370
    25
100
AcDbPolyline
 90
      114
 70
   128
 43
0.0
 10
336.3438711273
 20
-163.7755919649
 10
336.4312961888
 20
-160.0947976254
 10
336.6933011475
 20
-156.3244415827
 10
337.1290761611
 20
-152.4761777914
 10
337.7372742739
 20
-148.5619010142
 10
338.5160155806
 20
-144.5937100565
 10
339.4628930362
 20
-140.5838703689
 10
340.5749798969
 20
-136.5447761363
 10
341.8488387659
 20
-132.4889119673
 10
343.2805322185
 20
-128.4288143058
 10
344.8656349722
 20
-124.3770326809
 10
346.5992475652
 20
-120.3460909174
 10
348.4760115004
 20
-116.3484484253
 10
350.4901258081
 20
-112.3964616885
 10
352.6353649762
 20
-108.5023460715
 10
354.9050981936
 20
-104.6781380624
 10
357.2923098448
 20
-100.9356580691
 10
359.7896211955
 20
-97.2864738828
 10
362.3893131993
 20
-93.7418649227
 10
365.0833503574
 20
-90.3127873719
 10
367.8634055552
 20
-87.0098403126
 10
370.7208858015
 20
-83.8432329649
 10
373.6469587885
 20
-80.8227531307
 10
376.6325801923
 20
-77.95773694
 10
379.6685216283
 20
-75.2570399936
 10
382.7453991755
 20
-72.7290099912
 10
385.8537023817
 20
-70.3814609284
 10
388.9838236598
 20
-68.221648945
 10
392.1260879844
 20
-66.256249896
 10
395.2707827964
 20
-64.4913387172
 10
398.4081880245
 20
-62.932370648
 10
401.5286061288
 20
-61.5841643693
 10
404.6223920759
 20
-60.4508871095
 10
407.6799831506
 20
-59.5360417636
 10
410.6919285143
 20
-58.8424560661
 10
413.6489184163
 20
-58.3722738508
 10
416.5418129703
 20
-58.1269484238
 10
419.3616704051
 20
-58.1072380721
 10
422.0997747029
 20
-58.3132037191
 10
424.7476625403
 20
-58.7442087369
 10
427.2971494477
 20
-59.3989209137
 10
429.7403551072
 20
-60.2753165716
 10
432.0697277101
 20
-61.370686822
 10
434.2780672991
 20
-62.681645938
 10
436.3585480232
 20
-64.2041418203
 10
438.3047392356
 20
-65.9334685212
 10
440.1106253709
 20
-67.8642807912
 10
441.7706245385
 20
-69.9906106
 10
443.2796057761
 20
-72.3058855842
 10
444.6329049092
 20
-74.8029493613
 10
445.8263389677
 20
-77.4740836505
 10
446.8562191154
 20
-80.3110321286
 10
447.7193620516
 20
-83.3050259506
 10
448.4130998511
 20
-86.446810853
 10
448.9352882101
 20
-89.7266757588
 10
449.2843130743
 20
-93.1344827935
 10
449.4590956278
 20
-96.659698621
 10
449.4590956278
 20
-100.291427001
 10
449.2843130743
 20
-104.0184424693
 10
448.9352882101
 20
-107.8292250346
 10
448.4130998511
 20
-111.7119957865
 10
447.7193620516
 20
-115.6547533031
 10
446.8562191154
 20
-119.6453107467
 10
445.8263389677
 20
-123.6713335332
 10
444.6329049092
 20
-127.7203774566
 10
443.2796057761
 20
-131.7799271544
 10
441.7706245385
 20
-135.8374347911
 10
440.1106253709
 20
-139.880358843
 10
438.3047392356
 20
-143.8962028636
 10
436.3585480232
 20
-147.8725541092
 10
434.2780672991
 20
-151.7971219059
 10
432.0697277101
 20
-155.6577756397
 10
429.7403551072
 20
-159.442582251
 10
427.2971494477
 20
-163.1398431195
 10
424.7476625403
 20
-166.7381302238
 10
422.0997747029
 20
-170.2263214647
 10
419.3616704051
 20
-173.5936350428
 10
416.5418129703
 20
-176.829662785
 10
413.6489184163
 20
-179.9244023148
 10
410.6919285143
 20
-182.8682879698
 10
407.6799831506
 20
-185.6522203682
 10
404.6223920759
 20
-188.2675945343
 10
401.5286061288
 20
-190.7063264966
 10
398.4081880245
 20
-192.9608782743
 10
395.2707827964
 20
-195.0242811771
 10
392.1260879844
 20
-196.8901573449
 10
388.9838236598
 20
-198.5527394613
 10
385.8537023817
 20
-200.0068885802
 10
382.7453991755
 20
-201.2481100102
 10
379.6685216283
 20
-202.2725672069
 10
376.6325801923
 20
-203.0770936318
 10
373.6469587885
 20
-203.6592025398
 10
370.7208858015
 20
-204.0170946657
 10
367.8634055552
 20
-204.1496637854
 10
365.0833503574
 20
-204.0565001354
 10
362.3893131993
 20
-203.7378916791
 10
359.7896211955
 20
-203.194823217
 10
357.2923098448
 20
-202.4289733427
 10
354.9050981936
 20
-201.4427092543
 10
352.6353649762
 20
-200.2390794373
 10
350.4901258081
 20
-198.8218042428
 10
348.4760115004
 20
-197.1952643871
 10
346.5992475652
 20
-195.3644874116
 10
344.8656349722
 20
-193.335132143
 10
343.2805322185
 20
-191.1134712023
 10
341.8488387659
 20
-188.7063716161
 10
340.5749798969
 20
-186.1212735912
 10
339.4628930362
 20
-183.3661675174
 10
338.5160155806
 20
-180.4495692699
 10
337.7372742739
 20
-177.3804938865
 10
337.1290761611
 20
-174.1684277035
 10
336.6933011475
 20
-170.8232990333
 10
336.4312961888
 20
-167.355447477
 10
336.3438711273
 20
-163.7755919649
  0
LWPOLYLINE
  5
E7
330
1F
100
AcDbEntity
  8
0
  6
Continuous
 62
     7
370
    25
100
AcDbPolyline
 90
       58
 70
   128
 43
0.0
 10
458.3650070504
 20
-76.5307045144
 10
459.7339114218
 20
-77.3769919508
 10
461.8143921459
 20
-78.8994878331
 10
463.7605833583
 20
-80.6288145341
 10
465.5664694936
 20
-82.559626804
 10
467.2264686612
 20
-84.6859566128
 10
468.7354498988
 20
-87.001231597
 10
470.0887490319
 20
-89.4982953741
 10
471.2821830904
 20
-92.1694296633
 10
472.3120632381
 20
-95.0063781414
 10
473.1752061743
 20
-98.0003719634
 10
473.8689439738
 20
-101.1421568658
 10
474.3911323328
 20
-104.4220217716
 10
474.740157197
 20
-107.8298288063
 10
474.9149397505
 20
-111.3550446338
 10
474.9149397505
 20
-114.9867730138
 10
474.740157197
 20
-118.7137884821
 10
474.3911323328
 20
-122.5245710474
 10
473.8689439738
 20
-126.4073417993
 10
473.1752061743
 20
-130.3500993159
 10
472.3120632381
 20
-134.3406567596
 10
471.2821830904
 20
-138.366679546
 10
470.0887490319
 20
-142.4157234695
 10
468.7354498988
 20
-146.4752731672
 10
467.2264686612
 20
-150.5327808039
 10
465.5664694936
 20
-154.5757048558
 10
463.7605833583
 20
-158.5915488764
 10
461.8143921459
 20
-162.567900122
 10
459.7339114218
 20
-166.4924679187
 10
457.5255718328
 20
-170.3531216525
 10
455.1961992299
 20
-174.1379282638
 10
452.7529935704
 20
-177.8351891323
 10
450.2035066631
 20
-181.4334762366
 10
447.5556188257
 20
-184.9216674775
 10
444.8175145278
 20
-188.2889810556
 10
441.997657093
 20
-191.5250087978
 10
439.104762539
 20
-194.6197483276
 10
436.147772637
 20
-197.5636339826
 10
433.1358272733
 20
-200.347566381
 10
430.0782361986
 20
-202.9629405471
 10
426.9844502515
 20
-205.4016725094
 10
423.8640321472
 20
-207.6562242872
 10
420.7266269191
 20
-209.7196271899
 10
417.5819321071
 20
-211.5855033577
 10
414.4396677825
 20
-213.2480854741
 10
411.3095465044
 20
-214.702234593
 10
408.2012432982
 20
-215.943456023
 10
405.124365751
 20
-216.9679132197
 10
402.088424315
 20
-217.7724396446
 10
399.1028029112
 20
-218.3545485526
 10
396.1767299242
 20
-218.7124406785
 10
393.319249678
 20
-218.8450097982
 10
390.5391944801
 20
-218.7518461482
 10
387.8451573221
 20
-218.4332376919
 10
385.2454653182
 20
-217.8901692299
 10
382.7481539675
 20
-217.1243193556
 10
380.3609423163
 20
-216.1380552671
 10
378.3715084395
 20
-215.0985224953
  0
LWPOLYLINE
  5
E8
330
1F
100
AcDbEntity
  8
0
  6
Continuous
 62
     7
370
    25
100
AcDbPolyline
 90
      103
 70
   128
 43
0.0
 10
346.6676301326
 20
-157.8158127486
 10
346.7553412845
 20
-154.4777168836
 10
347.0181420218
 20
-151.0510144192
 10
347.4550354512
 20
-147.5487040116
 10
348.0643642864
 20
-143.9840711237
 10
348.8438171343
 20
-140.3706376291
 10
349.7904372633
 20
-136.7221105188
 10
350.9006338191
 20
-133.0523299057
 10
352.1701954457
 20
-129.3752165248
 10
353.5943062612
 20
-125.7047189266
 10
355.1675641254
 20
-122.0547605657
 10
356.8840011323
 20
-118.4391869844
 10
358.7371062484
 20
-114.8717132917
 10
360.7198500114
 20
-111.3658721374
 10
362.8247111949
 20
-107.9349623776
 10
365.0437053395
 20
-104.5919986284
 10
367.3684150404
 20
-101.3496618963
 10
369.7900218774
 20
-98.220251475
 10
372.2993398663
 20
-95.2156382903
 10
374.8868503045
 20
-92.347219869
 10
377.5427378785
 20
-89.6258771048
 10
380.2569278972
 20
-87.0619329829
 10
383.019124508
 20
-84.6651134216
 10
385.8188497532
 20
-82.4445103784
 10
388.6454833159
 20
-80.4085473614
 10
391.4883028067
 20
-78.5649474755
 10
394.3365244377
 20
-76.9207041266
 10
397.1793439285
 20
-75.482054493
 10
400.0059774912
 20
-74.2544558655
 10
402.8057027363
 20
-73.2425649462
 10
405.5678993472
 20
-72.4502201839
 10
408.2820893659
 20
-71.8804272137
 10
410.9379769399
 20
-71.5353474555
 10
413.5254873781
 20
-71.4162899151
 10
416.034805367
 20
-71.5237062184
 10
418.456412204
 20
-71.8571888987
 10
420.7811219049
 20
-72.4154729418
 10
423.0001160495
 20
-73.1964405853
 10
425.104977233
 20
-74.1971293513
 10
427.0877209959
 20
-75.4137432845
 10
428.9408261121
 20
-76.8416673517
 10
430.657263119
 20
-78.4754849477
 10
432.2305209832
 20
-80.3089984427
 10
433.6546317986
 20
-82.3352526921
 10
434.9241934253
 20
-84.5465614194
 10
436.0343899811
 20
-86.9345363731
 10
436.9810101101
 20
-89.4901191465
 10
437.760462958
 20
-92.2036155385
 10
438.3697917932
 20
-95.0647323281
 10
438.8066852226
 20
-98.0626163191
 10
439.0694859599
 20
-101.1858955108
 10
439.1571971118
 20
-104.4227222354
 10
439.0694859599
 20
-107.7608181004
 10
438.8066852226
 20
-111.1875205648
 10
438.3697917932
 20
-114.6898309725
 10
437.760462958
 20
-118.2544638603
 10
436.9810101101
 20
-121.8678973549
 10
436.0343899811
 20
-125.5164244653
 10
434.9241934253
 20
-129.1862050783
 10
433.6546317986
 20
-132.8633184592
 10
432.2305209832
 20
-136.5338160575
 10
430.657263119
 20
-140.1837744183
 10
428.9408261121
 20
-143.7993479996
 10
427.0877209959
 20
-147.3668216923
 10
425.104977233
 20
-150.8726628467
 10
423.0001160495
 20
-154.3035726064
 10
420.7811219049
 20
-157.6465363556
 10
418.456412204
 20
-160.8888730878
 10
416.034805367
 20
-164.018283509
 10
413.5254873781
 20
-167.0228966938
 10
410.9379769399
 20
-169.891315115
 10
408.2820893659
 20
-172.6126578792
 10
405.5678993472
 20
-175.1766020011
 10
402.8057027363
 20
-177.5734215624
 10
400.0059774912
 20
-179.7940246056
 10
397.1793439285
 20
-181.8299876227
 10
394.3365244377
 20
-183.6735875086
 10
391.4883028067
 20
-185.3178308574
 10
388.6454833159
 20
-186.756480491
 10
385.8188497532
 20
-187.9840791185
 10
383.019124508
 20
-188.9959700378
 10
380.2569278972
 20
-189.7883148001
 10
377.5427378785
 20
-190.3581077703
 10
374.8868503045
 20
-190.7031875285
 10
372.2993398663
 20
-190.822245069
 10
369.7900218774
 20
-190.7148287656
 10
367.3684150404
 20
-190.3813460854
 10
365.0437053395
 20
-189.8230620422
 10
362.8247111949
 20
-189.0420943988
 10
360.7198500114
 20
-188.0414056328
 10
358.7371062484
 20
-186.8247916995
 10
356.8840011323
 20
-185.3968676324
 10
355.1675641254
 20
-183.7630500364
 10
353.5943062612
 20
-181.9295365413
 10
352.1701954457
 20
-179.903282292
 10
350.9006338191
 20
-177.6919735647
 10
349.7904372633
 20
-175.3039986109
 10
348.8438171343
 20
-172.7484158376
 10
348.0643642864
 20
-170.0349194455
 10
347.4550354512
 20
-167.1738026559
 10
347.0181420218
 20
-164.1759186649
 10
346.7553412845
 20
-161.0526394732
 10
346.6676301326
 20
-157.8158127486
  0
LWPOLYLINE
  5
E9
330
1F
100
AcDbEntity
  8
0
  6
Continuous
 62
     7
370
    25
100
AcDbPolyline
 90
       81
 70
   128
 43
0.0
 10
443.6222292556
 20
-68.0198800514
 10
443.9084044119
 20
-67.9611866628
 10
447.0490799672
 20
-67.4324079068
 10
450.1272447745
 20
-67.1277644638
 10
453.1344617981
 20
-67.0480913405
 10
456.0624884651
 20
-67.1936069153
 10
458.9032992579
 20
-67.5639123401
 10
461.6491077117
 20
-68.1579926335
 10
464.2923877562
 20
-68.9742194626
 10
466.8258943447
 20
-70.0103556066
 10
469.2426833117
 20
-71.2635610882
 10
471.5361304066
 20
-72.7304009584
 10
473.6999494503
 20
-74.406854711
 10
475.7282095653
 20
-76.2883273027
 10
477.6153514315
 20
-78.3696617481
 10
479.3562025243
 20
-80.645153254
 10
480.9459912918
 20
-83.1085648564
 10
482.3803602336
 20
-85.7531445154
 10
483.655377844
 20
-88.5716436219
 10
484.7675493884
 20
-91.5563368657
 10
485.713826482
 20
-94.6990434103
 10
486.4916154449
 20
-97.9911493153
 10
487.0987844117
 20
-101.4236311473
 10
487.5336691745
 20
-104.9870807122
 10
487.7950777443
 20
-108.6717308424
 10
487.8822936185
 20
-112.4674821681
 10
487.7950777443
 20
-116.3639307986
 10
487.5336691745
 20
-120.3503968393
 10
487.0987844117
 20
-124.4159536636
 10
486.4916154449
 20
-128.549457863
 10
485.713826482
 20
-132.7395797898
 10
484.7675493884
 20
-136.974834611
 10
483.655377844
 20
-141.2436137875
 10
482.3803602336
 20
-145.5342168923
 10
480.9459912918
 20
-149.8348836807
 10
479.3562025243
 20
-154.1338263237
 10
477.6153514315
 20
-158.4192617185
 10
475.7282095653
 20
-162.6794437846
 10
473.6999494503
 20
-166.9026956589
 10
471.5361304066
 20
-171.0774417017
 10
469.2426833117
 20
-175.1922392242
 10
466.8258943447
 20
-179.2358098525
 10
464.2923877562
 20
-183.1970704406
 10
461.6491077117
 20
-187.0651634484
 10
458.9032992579
 20
-190.829486702
 10
456.0624884651
 20
-194.4797224529
 10
453.1344617981
 20
-198.0058656587
 10
450.1272447745
 20
-201.3982514059
 10
447.0490799672
 20
-204.6475814011
 10
443.9084044119
 20
-207.7449494565
 10
440.713826482
 20
-210.6818659016
 10
437.4741022936
 20
-213.4502808527
 10
434.1981117054
 20
-216.0426062766
 10
430.89483398
 20
-218.4517367897
 10
427.573323172
 20
-220.6710691327
 10
424.2426833117
 20
-222.6945202698
 10
420.9120434514
 20
-224.5165440622
 10
417.5905326434
 20
-226.1321464692
 10
414.287254918
 20
-227.5368992371
 10
411.0112643298
 20
-228.726952036
 10
407.7715401414
 20
-229.6990430141
 10
404.5769622115
 20
-230.4505077374
 10
401.4362866562
 20
-230.9792864934
 10
398.3581218489
 20
-231.2839299363
 10
395.3509048253
 20
-231.3636030597
 10
392.4228781583
 20
-231.2180874849
 10
389.5820673655
 20
-230.8477820601
 10
386.8362589117
 20
-230.2537017667
 10
384.1929788672
 20
-229.4374749375
 10
381.6594722787
 20
-228.4013387936
 10
379.2426833117
 20
-227.1481333119
 10
376.9492362168
 20
-225.6812934418
 10
374.7854171731
 20
-224.0048396892
 10
372.7571570581
 20
-222.1233670975
 10
370.8700151919
 20
-220.0420326521
 10
369.1291640991
 20
-217.7665411462
 10
367.5393753315
 20
-215.3031295438
 10
366.1050063898
 20
-212.6585498848
 10
364.8299887794
 20
-209.8400507783
 10
363.7178172349
 20
-206.8553575344
 10
363.6287306447
 20
-206.5876980323
  0
LWPOLYLINE
  5
EA
330
1F
100
AcDbEntity
  8
0
  6
Continuous
 62
     7
370
    25
100
AcDbPolyline
 90
       62
 70
   128
 43
0.0
 10
494.694870403
 20
-85.9567955986
 10
494.6985274344
 20
-85.9589071011
 10
496.9919745293
 20
-87.4257469712
 10
499.155793573
 20
-89.1022007238
 10
501.184053688
 20
-90.9836733155
 10
503.0711955542
 20
-93.0650077609
 10
504.812046647
 20
-95.3404992668
 10
506.4018354146
 20
-97.8039108692
 10
507.8362043563
 20
-100.4484905282
 10
509.1112219667
 20
-103.2669896347
 10
510.2233935112
 20
-106.2516828786
 10
511.1696706047
 20
-109.3943894231
 10
511.9474595676
 20
-112.6864953281
 10
512.5546285344
 20
-116.1189771601
 10
512.9895132972
 20
-119.682426725
 10
513.250921867
 20
-123.3670768552
 10
513.3381377412
 20
-127.1628281809
 10
513.250921867
 20
-131.0592768115
 10
512.9895132972
 20
-135.0457428521
 10
512.5546285344
 20
-139.1112996764
 10
511.9474595676
 20
-143.2448038758
 10
511.1696706047
 20
-147.4349258026
 10
510.2233935112
 20
-151.6701806238
 10
509.1112219667
 20
-155.9389598003
 10
507.8362043563
 20
-160.2295629052
 10
506.4018354146
 20
-164.5302296935
 10
504.812046647
 20
-168.8291723365
 10
503.0711955542
 20
-173.1146077313
 10
501.184053688
 20
-177.3747897974
 10
499.155793573
 20
-181.5980416717
 10
496.9919745293
 20
-185.7727877145
 10
494.6985274344
 20
-189.887585237
 10
492.2817384674
 20
-193.9311558653
 10
489.7482318789
 20
-197.8924164534
 10
487.1049518344
 20
-201.7605094612
 10
484.3591433806
 20
-205.5248327148
 10
481.5183325878
 20
-209.1750684657
 10
478.5903059208
 20
-212.7012116715
 10
475.5830888972
 20
-216.0935974187
 10
472.5049240899
 20
-219.3429274139
 10
469.3642485346
 20
-222.4402954693
 10
466.1696706047
 20
-225.3772119144
 10
462.9299464163
 20
-228.1456268655
 10
459.6539558281
 20
-230.7379522894
 10
456.3506781027
 20
-233.1470828025
 10
453.0291672947
 20
-235.3664151455
 10
449.6985274344
 20
-237.3898662826
 10
446.3678875741
 20
-239.211890075
 10
443.0463767661
 20
-240.8274924821
 10
439.7430990407
 20
-242.2322452499
 10
436.4671084525
 20
-243.4222980488
 10
433.2273842641
 20
-244.3943890269
 10
430.0328063342
 20
-245.1458537502
 10
426.8921307789
 20
-245.6746325062
 10
423.8139659716
 20
-245.9792759491
 10
420.806748948
 20
-246.0589490725
 10
417.878722281
 20
-245.9134334977
 10
415.0379114882
 20
-245.5431280729
 10
412.2921030344
 20
-244.9490477795
 10
409.6488229899
 20
-244.1328209503
 10
407.1153164014
 20
-243.0966848064
 10
404.7021844658
 20
-241.8455908272
  0
LWPOLYLINE
  5
EB
330
1F
100
AcDbEntity
  8
0
  6
Continuous
 62
     7
370
    25
100
AcDbPolyline
 90
       32
 70
   128
 43
0.0
 10
376.5854538583
 20
-175.0870047578
 10
376.6731650102
 20
-171.7489088928
 10
376.9359657475
 20
-168.3222064284
 10
377.3728591769
 20
-164.8198960207
 10
377.9821880121
 20
-161.2552631329
 10
378.76164086
 20
-157.6418296383
 10
379.708260989
 20
-153.993302528
 10
380.8184575448
 20
-150.3235219149
 10
382.0880191714
 20
-146.646408534
 10
383.5121299869
 20
-142.9759109358
 10
385.0853878511
 20
-139.3259525749
 10
386.801824858
 20
-135.7103789936
 10
388.6549299741
 20
-132.1429053009
 10
390.6376737371
 20
-128.6370641465
 10
392.7425349206
 20
-125.2061543868
 10
394.9615290652
 20
-121.8631906376
 10
397.2862387661
 20
-118.6208539054
 10
399.7078456031
 20
-115.4914434842
 10
402.217163592
 20
-112.4868302994
 10
404.8046740302
 20
-109.6184118782
 10
407.4605616042
 20
-106.897069114
 10
410.1747516229
 20
-104.3331249921
 10
412.9369482337
 20
-101.9363054308
 10
415.7366734789
 20
-99.7157023876
 10
418.5633070416
 20
-97.6797393705
 10
421.4061265324
 20
-95.8361394846
 10
424.2543481634
 20
-94.1918961358
 10
427.0971676542
 20
-92.7532465022
 10
429.9238012169
 20
-91.5256478747
 10
432.723526462
 20
-90.5137569554
 10
435.4857230729
 20
-89.7214121931
 10
436.9474306556
 20
-89.3881147129
  0
ARC
  5
EC
330
1F
100
AcDbEntity
  8
0
  6
Continuous
 62
     7
370
    25
100
AcDbCircle
 10
423.8599945732
 20
-175.818354163
 30
0.0
 40
47.28019745894211
100
AcDbArc
 50
179.1136901337
 51
197.6090903195
  0
LWPOLYLINE
  5
ED
330
1F
100
AcDbEntity
  8
0
  6
Continuous
 62
     7
370
    25
100
AcDbPolyline
 90
       83
 70
   128
 43
0.0
 10
478.7730302149
 20
-76.7653129042
 10
481.4064645787
 20
-76.3694174663
 10
484.655342965
 20
-76.0753476754
 10
487.8319179476
 20
-76.0080579159
 10
490.9282920605
 20
-76.1677154806
 10
493.9367672299
 20
-76.5539234357
 10
496.8498639124
 20
-77.1657216075
 10
499.6603396907
 20
-78.0015889691
 10
502.3612072792
 20
-79.0594474228
 10
504.9457518955
 20
-80.3366669656
 10
507.4075479544
 20
-81.8300722285
 10
509.7404750432
 20
-83.5359503709
 10
511.9387331373
 20
-85.4500603107
 10
513.996857021
 20
-87.5676432692
 10
515.9097298739
 20
-89.8834346014
 10
517.6725959926
 20
-92.3916768852
 10
519.2810726144
 20
-95.0861342351
 10
520.7311608128
 20
-97.9601078055
 10
522.0192554401
 20
-101.0064524454
 10
523.1421540901
 20
-104.217594462
 10
524.0970650598
 20
-107.5855504502
 10
524.8816142902
 20
-111.1019471409
 10
525.4938512682
 20
-114.7580422178
 10
525.9322538762
 20
-118.5447460524
 10
526.1957321763
 20
-122.4526443024
 10
526.2836311198
 20
-126.472021317
 10
526.1957321763
 20
-130.5928842917
 10
525.9322538762
 20
-134.8049881118
 10
525.4938512682
 20
-139.0978608235
 10
524.8816142902
 20
-143.4608296689
 10
524.0970650598
 20
-147.88304762
 10
523.1421540901
 20
-152.3535203462
 10
522.0192554401
 20
-156.8611335479
 10
520.7311608128
 20
-161.3946805885
 10
519.2810726144
 20
-165.9428903557
 10
517.6725959926
 20
-170.4944552834
 10
515.9097298739
 20
-175.0380594641
 10
513.996857021
 20
-179.5624067817
 10
511.9387331373
 20
-184.0562489962
 10
509.7404750432
 20
-188.5084137076
 10
507.4075479544
 20
-192.9078321329
 10
504.9457518955
 20
-197.2435666249
 10
502.3612072792
 20
-201.5048378643
 10
499.6603396907
 20
-205.6810516596
 10
496.8498639124
 20
-209.7618252851
 10
493.9367672299
 20
-213.7370132947
 10
490.9282920605
 20
-217.5967327446
 10
487.8319179476
 20
-221.3313877641
 10
484.655342965
 20
-224.9316934125
 10
481.4064645787
 20
-228.3886987626
 10
478.0933600122
 20
-231.6938091543
 10
474.7242661656
 20
-234.8388075626
 10
471.3075591368
 20
-237.8158750258
 10
467.8517333981
 20
-240.6176100852
 10
464.3653806766
 20
-243.237047186
 10
460.8571685946
 20
-245.6676739947
 10
457.33581912
 20
-247.9034475902
 10
453.8100868824
 20
-249.938809487
 10
450.2887374078
 20
-251.7686994548
 10
446.7805253258
 20
-253.3885680988
 10
443.2941726043
 20
-254.7943881703
 10
439.8383468655
 20
-255.9826645791
 10
436.4216398368
 20
-256.9504430828
 10
433.0525459901
 20
-257.6953176316
 10
429.7394414237
 20
-258.21543635
 10
426.4905630374
 20
-258.5095061409
 10
423.3139880548
 20
-258.5767959004
 10
420.2176139419
 20
-258.4171383357
 10
417.2091387725
 20
-258.0309303806
 10
414.29604209
 20
-257.4191322089
 10
411.4855663117
 20
-256.5832648472
 10
408.7846987232
 20
-255.5254063936
 10
406.2001541069
 20
-254.2481868508
 10
403.7383580479
 20
-252.7547815878
 10
401.4054309592
 20
-251.0489034455
 10
399.207172865
 20
-249.1347935056
 10
397.1490489814
 20
-247.0172105471
 10
395.2361761285
 20
-244.7014192149
 10
393.4733100097
 20
-242.1931769311
 10
391.864833388
 20
-239.4987195812
 10
390.4147451896
 20
-236.6247460108
 10
389.1266505623
 20
-233.5784013709
 10
388.7803442777
 20
-232.6541081328
  0
LWPOLYLINE
  5
EE
330
1F
100
AcDbEntity
  8
0
  6
Continuous
 62
     7
370
    25
100
AcDbPolyline
 90
       65
 70
   128
 43
0.0
 10
531.0247337557
 20
-95.3828866829
 10
532.8633920771
 20
-96.5254182413
 10
535.1963191659
 20
-98.2312963837
 10
537.3945772601
 20
-100.1454063235
 10
539.4527011437
 20
-102.262989282
 10
541.3655739966
 20
-104.5787806142
 10
543.1284401153
 20
-107.087022898
 10
544.7369167371
 20
-109.7814802479
 10
546.1870049355
 20
-112.6554538184
 10
547.4750995628
 20
-115.7017984583
 10
548.5979982128
 20
-118.9129404748
 10
549.5529091825
 20
-122.2808964631
 10
550.3374584129
 20
-125.7972931537
 10
550.9496953909
 20
-129.4533882306
 10
551.3880979989
 20
-133.2400920652
 10
551.651576299
 20
-137.1479903152
 10
551.7394752426
 20
-141.1673673298
 10
551.651576299
 20
-145.2882303045
 10
551.3880979989
 20
-149.5003341246
 10
550.9496953909
 20
-153.7932068363
 10
550.3374584129
 20
-158.1561756817
 10
549.5529091825
 20
-162.5783936328
 10
548.5979982128
 20
-167.048866359
 10
547.4750995628
 20
-171.5564795607
 10
546.1870049355
 20
-176.0900266013
 10
544.7369167371
 20
-180.6382363685
 10
543.1284401153
 20
-185.1898012962
 10
541.3655739966
 20
-189.7334054769
 10
539.4527011437
 20
-194.2577527945
 10
537.3945772601
 20
-198.751595009
 10
535.1963191659
 20
-203.2037597204
 10
532.8633920771
 20
-207.6031781457
 10
530.4015960182
 20
-211.9389126377
 10
527.8170514019
 20
-216.2001838772
 10
525.1161838134
 20
-220.3763976724
 10
522.3057080351
 20
-224.4571712979
 10
519.3926113526
 20
-228.4323593075
 10
516.3841361832
 20
-232.2920787574
 10
513.2877620703
 20
-236.0267337769
 10
510.1111870877
 20
-239.6270394253
 10
506.8623087014
 20
-243.0840447754
 10
503.5492041349
 20
-246.3891551671
 10
500.1801102883
 20
-249.5341535754
 10
496.7634032595
 20
-252.5112210387
 10
493.3075775208
 20
-255.312956098
 10
489.8212247993
 20
-257.9323931988
 10
486.3130127173
 20
-260.3630200075
 10
482.7916632427
 20
-262.598793603
 10
479.2659310051
 20
-264.6341554998
 10
475.7445815305
 20
-266.4640454676
 10
472.2363694485
 20
-268.0839141116
 10
468.750016727
 20
-269.4897341831
 10
465.2941909883
 20
-270.6780105919
 10
461.8774839595
 20
-271.6457890956
 10
458.5083901129
 20
-272.3906636444
 10
455.1952855464
 20
-272.9107823628
 10
451.9464071601
 20
-273.2048521537
 10
448.7698321775
 20
-273.2721419132
 10
445.6734580646
 20
-273.1124843485
 10
442.6649828952
 20
-272.7262763934
 10
439.7518862127
 20
-272.1144782217
 10
436.9414104344
 20
-271.27861086
 10
434.2405428459
 20
-270.2207524064
 10
431.6559982296
 20
-268.9435328636
 10
431.0328604921
 20
-268.592659159
  0
ARC
  5
EF
330
1F
100
AcDbEntity
  8
0
  6
Continuous
 62
     7
370
    25
100
AcDbCircle
 10
495.3839700973
 20
-190.2748378834
 30
0.0
 40
120.7643457408242
100
AcDbArc
 50
132.4666610707
 51
167.538715462
  0
LWPOLYLINE
  5
F0
330
1F
100
AcDbEntity
  8
0
  6
Continuous
 62
     7
370
    25
100
AcDbPolyline
 90
       89
 70
   128
 43
0.0
 10
512.5962615122
 20
-84.7443561042
 10
515.773999227
 20
-84.1690605652
 10
519.2443469165
 20
-83.7436369964
 10
522.6468301116
 20
-83.5434936946
 10
525.9739694158
 20
-83.5690706184
 10
529.2184510547
 20
-83.8203115441
 10
532.3731429537
 20
-84.2966641896
 10
535.4311104153
 20
-84.9970814284
 10
538.3856313633
 20
-85.9200235915
 10
541.2302111194
 20
-87.0634618516
 10
543.9585966801
 20
-88.4248826833
 10
546.5647904616
 20
-90.0012933881
 10
549.0430634845
 20
-91.7892286732
 10
551.3879679668
 20
-93.7847582688
 10
553.5943492995
 20
-95.9834955677
 10
555.6573573777
 20
-98.3806072682
 10
557.5724572617
 20
-100.9708239986
 10
559.3354391465
 20
-103.7484519002
 10
560.9424276153
 20
-106.7073851442
 10
562.3898901586
 20
-109.8411193531
 10
563.6746449396
 20
-113.142765899
 10
564.7938677885
 20
-116.6050670462
 10
565.7450984105
 20
-120.2204119054
 10
566.5262457944
 20
-123.980853164
 10
567.1355928086
 20
-127.8781245559
 10
567.5717999761
 20
-131.9036590329
 10
567.8339084189
 20
-136.0486075964
 10
567.9213419659
 20
-140.30385875
 10
567.8339084189
 20
-144.6600585281
 10
567.5717999761
 20
-149.1076310583
 10
567.1355928086
 20
-153.6367996107
 10
566.5262457944
 20
-158.23760809
 10
565.7450984105
 20
-162.8999429206
 10
564.7938677885
 20
-167.6135552788
 10
563.6746449396
 20
-172.3680836215
 10
562.3898901586
 20
-177.1530764636
 10
560.9424276153
 20
-181.9580153524
 10
559.3354391465
 20
-186.7723379893
 10
557.5724572617
 20
-191.5854614484
 10
555.6573573777
 20
-196.3868054397
 10
553.5943492995
 20
-201.1658155671
 10
551.3879679668
 20
-205.9119865292
 10
549.0430634845
 20
-210.6148852121
 10
546.5647904616
 20
-215.2641736238
 10
543.9585966801
 20
-219.8496316195
 10
541.2302111194
 20
-224.3611793671
 10
538.3856313633
 20
-228.7888995058
 10
535.4311104153
 20
-233.1230589456
 10
532.3731429537
 20
-237.3541302634
 10
529.2184510547
 20
-241.4728126463
 10
525.9739694157
 20
-245.4700523366
 10
522.6468301116
 20
-249.3370625337
 10
519.2443469165
 20
-253.0653427102
 10
515.773999227
 20
-256.6466972969
 10
512.2434156205
 20
-260.0732536994
 10
508.6603570859
 20
-263.3374796028
 10
505.0326999636
 20
-266.4321995304
 10
501.3684186312
 20
-269.3506106159
 10
497.6755679744
 20
-272.0862975586
 10
493.9622656803
 20
-274.6332467247
 10
490.2366743933
 20
-276.9858593673
 10
486.5069837715
 20
-279.1389639331
 10
482.7813924845
 20
-281.087827431
 10
479.0680901904
 20
-282.8281658362
 10
475.3752395335
 20
-284.3561535071
 10
471.7109582011
 20
-285.6684315951
 10
468.0833010788
 20
-286.7621154283
 10
464.5002425443
 20
-287.6348008522
 10
460.9696589377
 20
-288.2845695149
 10
457.4993112482
 20
-288.7099930837
 10
454.0968280532
 20
-288.9101363855
 10
450.769688749
 20
-288.8845594617
 10
447.52520711
 20
-288.633318536
 10
444.370515211
 20
-288.1569658905
 10
441.3125477495
 20
-287.4565486517
 10
438.3580268015
 20
-286.5336064886
 10
435.5134470453
 20
-285.3901682285
 10
432.7850614847
 20
-284.0287473968
 10
430.1788677031
 20
-282.452336692
 10
427.7005946802
 20
-280.6644014069
 10
425.3556901979
 20
-278.6688718113
 10
423.1493088652
 20
-276.4701345124
 10
421.0863007871
 20
-274.0730228119
 10
419.171200903
 20
-271.4828060815
 10
417.4082190182
 20
-268.7051781799
 10
415.8012305494
 20
-265.7462449359
 10
414.3537680062
 20
-262.612510727
 10
413.0690132252
 20
-259.3108641811
 10
412.6043882486
 20
-257.9541285804
  0
ARC
  5
F1
330
1F
100
AcDbEntity
  8
0
  6
Continuous
 62
     7
370
    25
100
AcDbCircle
 10
524.1788103471
 20
-206.8977453311
 30
0.0
 40
122.4932509779128
100
AcDbArc
 50
135.1872997076
 51
164.8180768251
  0
LWPOLYLINE
  5
F2
330
1F
100
AcDbEntity
  8
0
  6
Continuous
 62
     7
370
    25
100
AcDbPolyline
 90
       69
 70
   128
 43
0.0
 10
570.0731019159
 20
-103.491664035
 10
572.0206345843
 20
-104.6966394009
 10
574.4989076072
 20
-106.484574686
 10
576.8438120895
 20
-108.4801042816
 10
579.0501934223
 20
-110.6788415805
 10
581.1132015004
 20
-113.075953281
 10
583.0283013845
 20
-115.6661700114
 10
584.7912832693
 20
-118.443797913
 10
586.398271738
 20
-121.402731157
 10
587.8457342813
 20
-124.5364653659
 10
589.1304890623
 20
-127.8381119118
 10
590.2497119112
 20
-131.300413059
 10
591.2009425333
 20
-134.9157579182
 10
591.9820899171
 20
-138.6761991768
 10
592.5914369313
 20
-142.5734705687
 10
593.0276440988
 20
-146.5990050457
 10
593.2897525417
 20
-150.7439536092
 10
593.3771860886
 20
-154.9992047628
 10
593.2897525417
 20
-159.355404541
 10
593.0276440988
 20
-163.8029770711
 10
592.5914369313
 20
-168.3321456235
 10
591.9820899171
 20
-172.9329541028
 10
591.2009425333
 20
-177.5952889334
 10
590.2497119112
 20
-182.3089012916
 10
589.1304890623
 20
-187.0634296343
 10
587.8457342813
 20
-191.8484224764
 10
586.398271738
 20
-196.6533613652
 10
584.7912832693
 20
-201.4676840021
 10
583.0283013845
 20
-206.2808074612
 10
581.1132015004
 20
-211.0821514526
 10
579.0501934223
 20
-215.86116158
 10
576.8438120895
 20
-220.607332542
 10
574.4989076072
 20
-225.3102312249
 10
572.0206345843
 20
-229.9595196366
 10
569.4144408028
 20
-234.5449776323
 10
566.6860552421
 20
-239.0565253799
 10
563.841475486
 20
-243.4842455186
 10
560.886954538
 20
-247.8184049584
 10
557.8289870764
 20
-252.0494762762
 10
554.6742951774
 20
-256.1681586592
 10
551.4298135385
 20
-260.1653983494
 10
548.1026742343
 20
-264.0324085465
 10
544.7001910392
 20
-267.760688723
 10
541.2298433497
 20
-271.3420433097
 10
537.6992597432
 20
-274.7685997122
 10
534.1162012086
 20
-278.0328256156
 10
530.4885440863
 20
-281.1275455432
 10
526.8242627539
 20
-284.0459566287
 10
523.1314120971
 20
-286.7816435714
 10
519.418109803
 20
-289.3285927375
 10
515.692518516
 20
-291.6812053801
 10
511.9628278942
 20
-293.8343099459
 10
508.2372366072
 20
-295.7831734438
 10
504.5239343131
 20
-297.523511849
 10
500.8310836562
 20
-299.0514995199
 10
497.1668023239
 20
-300.3637776079
 10
493.5391452016
 20
-301.4574614411
 10
489.956086667
 20
-302.330146865
 10
486.4255030605
 20
-302.9799155277
 10
482.955155371
 20
-303.4053390965
 10
479.5526721759
 20
-303.6054823983
 10
476.2255328717
 20
-303.5799054745
 10
472.9810512327
 20
-303.3286645488
 10
469.8263593338
 20
-302.8523119033
 10
466.7683918722
 20
-302.1518946645
 10
463.8138709242
 20
-301.2289525014
 10
460.9692911681
 20
-300.0855142413
 10
458.2409056074
 20
-298.7240934097
 10
457.5822444943
 20
-298.3526580707
  0
ARC
  5
F3
330
1F
100
AcDbEntity
  8
0
  6
Continuous
 62
     7
370
    25
100
AcDbCircle
 10
537.8681910362
 20
-214.8004565889
 30
0.0
 40
137.460396657425
100
AcDbArc
 50
137.1341977362
 51
162.8711787965
  0
LINE
  5
F4
330
1F
100
AcDbEntity
  8
0
  6
Continuous
 62
     7
370
    25
100
AcDbLine
 10
23.8914362981
 20
-125.8093706343
 30
0.0
 11
23.8914362981
 21
-161.8093706343
 31
0.0
  0
LINE
  5
F5
330
1F
100
AcDbEntity
  8
0
  6
Continuous
 62
     7
370
    25
100
AcDbLine
 10
248.8914362981
 20
-161.8093706343
 30
0.0
 11
248.8914362981
 21
-125.8093706343
 31
0.0
  0
LINE
  5
F6
330
1F
100
AcDbEntity
  8
0
  6
Continuous
 62
     7
370
    25
100
AcDbLine
 10
23.8914362981
 20
-161.8093706343
 30
0.0
 11
36.3914362981
 21
-172.1939860189
 31
0.0
  0
LINE
  5
F7
330
1F
100
AcDbEntity
  8
0
  6
Continuous
 62
     7
370
    25
100
AcDbLine
 10
236.3914362981
 20
-172.1939860189
 30
0.0
 11
248.8914362981
 21
-161.8093706343
 31
0.0
  0
LINE
  5
F8
330
1F
100
AcDbEntity
  8
0
  6
Continuous
 62
     7
370
    25
100
AcDbLine
 10
36.3914362981
 20
-172.1939860189
 30
0.0
 11
36.3914362981
 21
-208.1939860189
 31
0.0
  0
LINE
  5
F9
330
1F
100
AcDbEntity
  8
0
  6
Continuous
 62
     7
370
    25
100
AcDbLine
 10
236.3914362981
 20
-208.1939860189
 30
0.0
 11
236.3914362981
 21
-172.1939860189
 31
0.0
  0
LINE
  5
FA
330
1F
100
AcDbEntity
  8
0
  6
Continuous
 62
     7
370
    25
100
AcDbLine
 10
36.3914362981
 20
-208.1939860189
 30
0.0
 11
46.3914362981
 21
-216.5016783266
 31
0.0
  0
LINE
  5
FB
330
1F
100
AcDbEntity
  8
0
  6
Continuous
 62
     7
370
    25
100
AcDbLine
 10
226.3914362981
 20
-216.5016783266
 30
0.0
 11
236.3914362981
 21
-208.1939860189
 31
0.0
  0
LINE
  5
FC
330
1F
100
AcDbEntity
  8
0
  6
Continuous
 62
     7
370
    25
100
AcDbLine
 10
46.3914362981
 20
-216.5016783266
 30
0.0
 11
46.3914362981
 21
-252.5016783266
 31
0.0
  0
LINE
  5
FD
330
1F
100
AcDbEntity
  8
0
  6
Continuous
 62
     7
370
    25
100
AcDbLine
 10
226.3914362981
 20
-252.5016783266
 30
0.0
 11
226.3914362981
 21
-216.5016783266
 31
0.0
  0
LINE
  5
FE
330
1F
100
AcDbEntity
  8
0
  6
Continuous
 62
     7
370
    25
100
AcDbLine
 10
46.3914362981
 20
-252.5016783266
 30
0.0
 11
56.3914362981
 21
-260.8093706343
 31
0.0
  0
LINE
  5
FF
330
1F
100
AcDbEntity
  8
0
  6
Continuous
 62
     7
370
    25
100
AcDbLine
 10
216.3914362981
 20
-260.8093706343
 30
0.0
 11
226.3914362981
 21
-252.5016783266
 31
0.0
  0
LINE
  5
100
330
1F
100
AcDbEntity
  8
0
  6
Continuous
 62
     7
370
    25
100
AcDbLine
 10
56.3914362981
 20
-260.8093706343
 30
0.0
 11
56.3914362981
 21
-296.8093706343
 31
0.0
  0
LINE
  5
101
330
1F
100
AcDbEntity
  8
0
  6
Continuous
 62
     7
370
    25
100
AcDbLine
 10
216.3914362981
 20
-296.8093706343
 30
0.0
 11
216.3914362981
 21
-260.8093706343
 31
0.0
  0
LINE
  5
102
330
1F
100
AcDbEntity
  8
0
  6
Continuous
 62
     7
370
    25
100
AcDbLine
 10
23.8914362981
 20
-161.8093706343
 30
0.0
 11
248.8914362981
 21
-161.8093706343
 31
0.0
  0
LINE
  5
103
330
1F
100
AcDbEntity
  8
0
  6
Continuous
 62
     7
370
    25
100
AcDbLine
 10
23.8914362981
 20
-125.8093706343
 30
0.0
 11
248.8914362981
 21
-125.8093706343
 31
0.0
  0
LINE
  5
104
330
1F
100
AcDbEntity
  8
0
  6
Continuous
 62
     7
370
    25
100
AcDbLine
 10
36.3914362981
 20
-172.1939860189
 30
0.0
 11
236.3914362981
 21
-172.1939860189
 31
0.0
  0
LINE
  5
105
330
1F
100
AcDbEntity
  8
0
  6
Continuous
 62
     7
370
    25
100
AcDbLine
 10
36.3914362981
 20
-208.1939860189
 30
0.0
 11
236.3914362981
 21
-208.1939860189
 31
0.0
  0
LINE
  5
106
330
1F
100
AcDbEntity
  8
0
  6
Continuous
 62
     7
370
    25
100
AcDbLine
 10
46.3914362981
 20
-216.5016783266
 30
0.0
 11
226.3914362981
 21
-216.5016783266
 31
0.0
  0
LINE
  5
107
330
1F
100
AcDbEntity
  8
0
  6
Continuous
 62
     7
370
    25
100
AcDbLine
 10
46.3914362981
 20
-252.5016783266
 30
0.0
 11
226.3914362981
 21
-252.5016783266
 31
0.0
  0
LINE
  5
108
330
1F
100
AcDbEntity
  8
0
  6
Continuous
 62
     7
370
    25
100
AcDbLine
 10
56.3914362981
 20
-260.8093706343
 30
0.0
 11
216.3914362981
 21
-260.8093706343
 31
0.0
  0
LINE
  5
109
330
1F
100
AcDbEntity
  8
0
  6
Continuous
 62
     7
370
    25
100
AcDbLine
 10
56.3914362981
 20
-296.8093706343
 30
0.0
 11
216.3914362981
 21
-296.8093706343
 31
0.0
  0
ENDSEC
  0
SECTION
  2
OBJECTS
  0
DICTIONARY
  5
C
330
0
100
AcDbDictionary
281
     1
  3
ACAD_GROUP
350
D
  3
ACAD_LAYOUT
350
1A
  3
ACAD_MLINESTYLE
350
17
  3
ACAD_PLOTSETTINGS
350
19
  3
ACAD_PLOTSTYLENAME
350
E
  3
ACAD_SCALELIST
350
47
  0
DICTIONARY
  5
D
102
{ACAD_REACTORS
330
C
102
}
330
C
100
AcDbDictionary
281
     1
  0
DICTIONARY
  5
1A
102
{ACAD_REACTORS
330
C
102
}
330
C
100
AcDbDictionary
281
     1
  3
Layout1
350
1E
  3
Layout2
350
26
  3
Model
350
22
  0
DICTIONARY
  5
17
102
{ACAD_REACTORS
330
C
102
}
330
C
100
AcDbDictionary
281
     1
  3
Standard
350
18
  0
DICTIONARY
  5
19
102
{ACAD_REACTORS
330
C
102
}
330
C
100
AcDbDictionary
281
     1
  0
ACDBDICTIONARYWDFLT
  5
E
102
{ACAD_REACTORS
330
C
102
}
330
C
100
AcDbDictionary
281
     1
  3
Normal
350
F
100
AcDbDictionaryWithDefault
340
F
  0
DICTIONARY
  5
47
102
{ACAD_REACTORS
330
C
102
}
330
C
100
AcDbDictionary
281
     1
  3
A0
350
48
  3
A1
350
49
  3
A2
350
4A
  3
A3
350
4B
  3
A4
350
4C
  3
A5
350
4D
  3
A6
350
4E
  3
A7
350
4F
  3
A8
350
50
  3
A9
350
51
  3
B0
350
52
  3
B1
350
53
  3
B2
350
54
  3
B3
350
55
  3
B4
350
56
  3
B5
350
57
  3
B6
350
58
  3
B7
350
59
  3
B8
350
5A
  3
B9
350
5B
  3
C0
350
5C
  3
C1
350
5D
  3
C2
350
5E
  3
C3
350
5F
  3
C4
350
60
  3
C5
350
61
  3
C6
350
62
  3
C7
350
63
  3
C8
350
64
  3
C9
350
65
  3
D0
350
66
  3
D1
350
67
  3
D2
350
68
  0
LAYOUT
  5
1E
102
{ACAD_REACTORS
330
1A
102
}
330
1A
100
AcDbPlotSettings
  1

  2
none_device
  4

  6

 40
0.0
 41
0.0
 42
0.0
 43
0.0
 44
0.0
 45
0.0
 46
0.0
 47
0.0
 48
0.0
 49
0.0
140
0.0
141
0.0
142
1.0
143
1.0
 70
   688
 72
     1
 73
     0
 74
     5
  7

 75
    16
147
1.0
148
0.0
149
0.0
100
AcDbLayout
  1
Layout1
 70
     1
 71
     1
 10
0.0
 20
0.0
 11
420.0
 21
297.0
 12
0.0
 22
0.0
 32
0.0
 14
1.0000000000E+20
 24
1.0000000000E+20
 34
1.0000000000E+20
 15
-1.0000000000E+20
 25
-1.0000000000E+20
 35
-1.0000000000E+20
146
0.0
 13
0.0
 23
0.0
 33
0.0
 16
1.0
 26
0.0
 36
0.0
 17
0.0
 27
1.0
 37
0.0
 76
     0
330
1B
  0
LAYOUT
  5
26
102
{ACAD_REACTORS
330
1A
102
}
330
1A
100
AcDbPlotSettings
  1

  2
none_device
  4

  6

 40
0.0
 41
0.0
 42
0.0
 43
0.0
 44
0.0
 45
0.0
 46
0.0
 47
0.0
 48
0.0
 49
0.0
140
0.0
141
0.0
142
1.0
143
1.0
 70
   688
 72
     1
 73
     0
 74
     5
  7

 75
    16
147
1.0
148
0.0
149
0.0
100
AcDbLayout
  1
Layout2
 70
     1
 71
     2
 10
0.0
 20
0.0
 11
0.0
 21
0.0
 12
0.0
 22
0.0
 32
0.0
 14
0.0
 24
0.0
 34
0.0
 15
0.0
 25
0.0
 35
0.0
146
0.0
 13
0.0
 23
0.0
 33
0.0
 16
1.0
 26
0.0
 36
0.0
 17
0.0
 27
1.0
 37
0.0
 76
     0
330
23
  0
LAYOUT
  5
22
102
{ACAD_REACTORS
330
1A
102
}
330
1A
100
AcDbPlotSettings
  1

  2
none_device
  4
Letter_(8.50_x_11.00_Inches)
  6

 40
6.35
 41
6.35
 42
6.35000508
 43
6.35000508
 44
215.9
 45
279.4
 46
0.0
 47
0.0
 48
0.0
 49
0.0
140
0.0
141
0.0
142
1.0
143
1.0
 70
  1712
 72
     1
 73
     0
 74
     0
  7

 75
     0
147
1.0
148
0.0
149
0.0
100
AcDbLayout
  1
Model
 70
     1
 71
     0
 10
0.0
 20
0.0
 11
279.4
 21
215.9
 12
0.0
 22
0.0
 32
0.0
 14
0.0
 24
0.0
 34
0.0
 15
279.4
 25
215.9
 35
0.0
146
0.0
 13
0.0
 23
0.0
 33
0.0
 16
1.0
 26
0.0
 36
0.0
 17
0.0
 27
1.0
 37
0.0
 76
     0
330
1F
331
29
  0
MLINESTYLE
  5
18
102
{ACAD_REACTORS
330
17
102
}
330
17
100
AcDbMlineStyle
  2
Standard
 70
     0
  3

 62
   256
 51
90.0
 52
90.0
 71
     2
 49
0.5
 62
   256
  6
BYLAYER
 49
-0.5
 62
   256
  6
BYLAYER
  0
ACDBPLACEHOLDER
  5
F
102
{ACAD_REACTORS
330
E
102
}
330
E
  0
SCALE
  5
48
102
{ACAD_REACTORS
330
47
102
}
330
47
100
AcDbScale
 70
     0
300
1:1
140
1.0
141
1.0
290
     1
  0
SCALE
  5
49
102
{ACAD_REACTORS
330
47
102
}
330
47
100
AcDbScale
 70
     0
300
1:2
140
1.0
141
2.0
290
     0
  0
SCALE
  5
4A
102
{ACAD_REACTORS
330
47
102
}
330
47
100
AcDbScale
 70
     0
300
1:4
140
1.0
141
4.0
290
     0
  0
SCALE
  5
4B
102
{ACAD_REACTORS
330
47
102
}
330
47
100
AcDbScale
 70
     0
300
1:5
140
1.0
141
5.0
290
     0
  0
SCALE
  5
4C
102
{ACAD_REACTORS
330
47
102
}
330
47
100
AcDbScale
 70
     0
300
1:8
140
1.0
141
8.0
290
     0
  0
SCALE
  5
4D
102
{ACAD_REACTORS
330
47
102
}
330
47
100
AcDbScale
 70
     0
300
1:10
140
1.0
141
10.0
290
     0
  0
SCALE
  5
4E
102
{ACAD_REACTORS
330
47
102
}
330
47
100
AcDbScale
 70
     0
300
1:16
140
1.0
141
16.0
290
     0
  0
SCALE
  5
4F
102
{ACAD_REACTORS
330
47
102
}
330
47
100
AcDbScale
 70
     0
300
1:20
140
1.0
141
20.0
290
     0
  0
SCALE
  5
50
102
{ACAD_REACTORS
330
47
102
}
330
47
100
AcDbScale
 70
     0
300
1:30
140
1.0
141
30.0
290
     0
  0
SCALE
  5
51
102
{ACAD_REACTORS
330
47
102
}
330
47
100
AcDbScale
 70
     0
300
1:40
140
1.0
141
40.0
290
     0
  0
SCALE
  5
52
102
{ACAD_REACTORS
330
47
102
}
330
47
100
AcDbScale
 70
     0
300
1:50
140
1.0
141
50.0
290
     0
  0
SCALE
  5
53
102
{ACAD_REACTORS
330
47
102
}
330
47
100
AcDbScale
 70
     0
300
1:100
140
1.0
141
100.0
290
     0
  0
SCALE
  5
54
102
{ACAD_REACTORS
330
47
102
}
330
47
100
AcDbScale
 70
     0
300
2:1
140
2.0
141
1.0
290
     0
  0
SCALE
  5
55
102
{ACAD_REACTORS
330
47
102
}
330
47
100
AcDbScale
 70
     0
300
4:1
140
4.0
141
1.0
290
     0
  0
SCALE
  5
56
102
{ACAD_REACTORS
330
47
102
}
330
47
100
AcDbScale
 70
     0
300
8:1
140
8.0
141
1.0
290
     0
  0
SCALE
  5
57
102
{ACAD_REACTORS
330
47
102
}
330
47
100
AcDbScale
 70
     0
300
10:1
140
10.0
141
1.0
290
     0
  0
SCALE
  5
58
102
{ACAD_REACTORS
330
47
102
}
330
47
100
AcDbScale
 70
     0
300
100:1
140
100.0
141
1.0
290
     0
  0
SCALE
  5
59
102
{ACAD_REACTORS
330
47
102
}
330
47
100
AcDbScale
 70
     0
300
1/128" = 1'-0"
140
0.0078125
141
12.0
290
     0
  0
SCALE
  5
5A
102
{ACAD_REACTORS
330
47
102
}
330
47
100
AcDbScale
 70
     0
300
1/64" = 1'-0"
140
0.015625
141
12.0
290
     0
  0
SCALE
  5
5B
102
{ACAD_REACTORS
330
47
102
}
330
47
100
AcDbScale
 70
     0
300
1/32" = 1'-0"
140
0.03125
141
12.0
290
     0
  0
SCALE
  5
5C
102
{ACAD_REACTORS
330
47
102
}
330
47
100
AcDbScale
 70
     0
300
1/16" = 1'-0"
140
0.0625
141
12.0
290
     0
  0
SCALE
  5
5D
102
{ACAD_REACTORS
330
47
102
}
330
47
100
AcDbScale
 70
     0
300
3/32" = 1'-0"
140
0.09375
141
12.0
290
     0
  0
SCALE
  5
5E
102
{ACAD_REACTORS
330
47
102
}
330
47
100
AcDbScale
 70
     0
300
1/8" = 1'-0"
140
0.125
141
12.0
290
     0
  0
SCALE
  5
5F
102
{ACAD_REACTORS
330
47
102
}
330
47
100
AcDbScale
 70
     0
300
3/16" = 1'-0"
140
0.1875
141
12.0
290
     0
  0
SCALE
  5
60
102
{ACAD_REACTORS
330
47
102
}
330
47
100
AcDbScale
 70
     0
300
1/4" = 1'-0"
140
0.25
141
12.0
290
     0
  0
SCALE
  5
61
102
{ACAD_REACTORS
330
47
102
}
330
47
100
AcDbScale
 70
     0
300
3/8" = 1'-0"
140
0.375
141
12.0
290
     0
  0
SCALE
  5
62
102
{ACAD_REACTORS
330
47
102
}
330
47
100
AcDbScale
 70
     0
300
1/2" = 1'-0"
140
0.5
141
12.0
290
     0
  0
SCALE
  5
63
102
{ACAD_REACTORS
330
47
102
}
330
47
100
AcDbScale
 70
     0
300
3/4" = 1'-0"
140
0.75
141
12.0
290
     0
  0
SCALE
  5
64
102
{ACAD_REACTORS
330
47
102
}
330
47
100
AcDbScale
 70
     0
300
1" = 1'-0"
140
1.0
141
12.0
290
     0
  0
SCALE
  5
65
102
{ACAD_REACTORS
330
47
102
}
330
47
100
AcDbScale
 70
     0
300
1-1/2" = 1'-0"
140
1.5
141
12.0
290
     0
  0
SCALE
  5
66
102
{ACAD_REACTORS
330
47
102
}
330
47
100
AcDbScale
 70
     0
300
3" = 1'-0"
140
3.0
141
12.0
290
     0
  0
SCALE
  5
67
102
{ACAD_REACTORS
330
47
102
}
330
47
100
AcDbScale
 70
     0
300
6" = 1'-0"
140
6.0
141
12.0
290
     0
  0
SCALE
  5
68
102
{ACAD_REACTORS
330
47
102
}
330
47
100
AcDbScale
 70
     0
300
1'-0" = 1'-0"
140
12.0
141
12.0
290
     0
  0
ENDSEC
  0
EOF
